PrimaNota.ru - самый крупный в мире бесплатный архив песенных текстов, аккордов, табулатур и нот


Radiohead - Blow Out - аккорды и текст, таба, бас-таба, видео

Регистрация Запомнить меня
Войти через:  Facebook Google Twitter Vk Yandex Mail.ru

Radiohead - Blow Out - аккорды и текст, таба, бас-таба, видео

Печатать
Просмотров: 528
Авторы музыки: Ed O'Brien, Philip Selway, Thom Yorke, Jonny Greenwood, Colin Greenwood
Авторы текста: Thom Yorke
Blow Out
Radiohead
-------------------------------------------------------------------------------
                             BLOW OUT - Radiohead
-------------------------------------------------------------------------------

Corrected by Mike Talbot
Email: miketalbotismyname@gmail.com
Send me a tab and I'll correct it.

This tab might not be 100%, but it is (now) much better than any others I've 
found, and sounds very good.

On: Acoustic
Originally tabbed by: Salon Kitty

Chords
           
    Emsus2  F*    G*    A   A7M    Am7

E-----2-----------0-----0-----4-----3-------------|
B-----0-----------0-----2-----2-----1-------------|
G-----0-----------0-----2-----2-----2-------------|
D-----2-----0-----0-----2-----2-----2-------------|
A-----2-----0-----x-----0-----0-------------------|
E-----0-----2-----3-------------------------------|

(Emsus2 is labeled just as Em)


[Verse]
F*    Em F* Em                      G* A  G* A
In my mind…………… and nailed into my heals

        Em F* Em                 G* A G* A
All the time…………… killing what I feel


[Chorus]
                 Em    F* Em
And everything I touch

         G* A
Turns to stone

             Em    F* Em
Everything I touch

   G* A
Turns stone


[Bridge] (2x)

A7M             Am7
Do do do do do do…


[Verse]
     Em F* Em                   G*   A    G* A
I am fused…………… just in case I blow out

     Em F* Em                  G*    A   G* A
I am glued…………… just in case I crack out.


[Play chorus again, 1.5x through] 


| x  Mute note
============================================================================
Добавлено: 22.05.2012
Другие материалы по этой песне:

Страница создана 26.02.2012
http://primanota.ru/radiohead/blow-out-chords.htm
Привет, Гость.
Предлагаем пройти революционный курс по гитаре.
Подарок от PrimaNota.Ru, забирай!