PrimaNota.ru - самый крупный в мире бесплатный архив песенных текстов, аккордов, табулатур и нот


Radio Moscow - Frustrating Sound - таба, бас-таба, видео

Регистрация Запомнить меня
Войти через:  Facebook Google Twitter Vk Yandex Mail.ru

Radio Moscow - Frustrating Sound - таба, бас-таба, видео

Печатать
Просмотров: 327
This is my first tab and it's a pretty tricky song to get. Needless to say
I've left out the solo; with all that fuzz, transcribing it would be like
beethoven trying to hear without putting his head on the ground. Anyways
this is about it, although it gets changed up a little everytime Parker
Griggs plays it.

Main Riff:
e---------------------------------------------------------------------------|
B-----------------------------------6v--------------------------------------|
G--------------------------------6------6-----------------------------------|
D-----8--6------------------------------------------------------------------|
A------------6--7--8--------------------------------------------------------|
E--6-------------------9------6---------------------------------------------|

e---------------------------------------------------------------------------|
B----------------------------------10v----8--6v-----------------------------|
G----------------------------------10v----8--6v-----------------------------|
D-----8--6------------------------------------------------------------------|
A-----------6--7--8---------------------------------------------------------|
E--6------------------9-------6---------------------------------------------|

e---------------------------------------------------------------------------|
B---------------------------------------------------------------------------|
G----------------------------------------------6v---------------------------|
D----8--6--------------------------------6-7-8------------------------------|
A----------6--7--8----------------6-7-8-------------------------------------|
E--6------------------9----4-5-6--------------------------------------------|

e---------------------------------------------------------------------------|
B---------------------------------------------------------------------------|
G---------------------------6v~~~-------------------------------------------|
D----8--6----------------6--------------------------------------------------|
A----------6-7-8------------------------------------------------------------|
E--6----------------9-------------------------------------------------------|

Verse:
e----------------------------|----------------------------------------------|
B----------------------------|----------------------------------------------|
G-------6--------------------|----------------------------------------------|
D--8----6----8----6/--8------|----------------------------------------------|
A--8----4----8----6/--8------|----------------------------------------------|
E--6---------6----4/--6------|---(x4)---------------------------------------|

Pre-Solo:
e---------------------|-----------------------------------------------------|
B---------------------|-----------------------------------------------------|
G--8-8-8-8-6-6--------|-----------------------------------------------------|
D--8-8-8-8-6-6-6-7-8--|-----------------------------------------------------|
A--6-6-6-6-4-4-6-7-8--|-----------------------------------------------------|
E--------------4-5-6--|-----------------------------------------------------|

There's small bits between each G#5 A5 A#5 but I didn't take the time to
figure them out yet, when I do I'll post them. This is essentially the
frame of the song which you can mix up with bluesy runs and than the solo.
It's a really great song, I'm suprised no one else has already done this,
in fact I was also the first to post some lyrics for it.
-Robert Sutton
Добавлено: 04.03.2012
Другие материалы по этой песне:
  • Аккорды и текст

Страница создана 04.03.2012
http://primanota.ru/radio-moscow/frustrating-sound-chords.htm
Привет, Гость.
Предлагаем пройти революционный курс по гитаре.
Подарок от PrimaNota.Ru, забирай!