PrimaNota.ru - самый крупный в мире бесплатный архив песенных текстов, аккордов, табулатур и нот


Radio Caroline - Move Along - аккорды и текст, видео

Регистрация Запомнить меня
Войти через:  Facebook Google Twitter Vk Yandex Mail.ru

Radio Caroline - Move Along - аккорды и текст, видео

Печатать
Просмотров: 69
Move Along
Radio Caroline
Intro

Bb - F - C - G (x2)
e|---------------------------------------------------------------------------------------------------------
B|---------------------------------------------------------------------------------------------------------
G|--12/14--12--10--12--10--12/14--12--10--12--10------10--12/14--12--10--12--10-------10--12--10------9/10-
D|------------------------------------------------12------------------------------12--------------12-------
A|---------------------------------------------------------------------------------------------------------
E|---------------------------------------------------------------------------------------------------------

Verse 1

Bb                     F
Corner of Kingston and Summer Street
C           G
Boston city faced the heat
Bb                  F
Thirty people died, everyone weeped
C                    G
Twenty minutes late, now they're six feet deep

Chorus

F
Hold on
G
Stand strong
Bb          C
Keep moving along
F
Hold on
G
Stand strong
Bb          C
Keep moving along (baby)

Inro

Bb - F - C - G (x2)

e|---------------------------------------------------------------------------------------------------------
B|---------------------------------------------------------------------------------------------------------
G|--12/14--12--10--12--10--12/14--12--10--12--10------10--12/14--12--10--12--10-------10--12--10------9/10-
D|------------------------------------------------12------------------------------12--------------12-------
A|---------------------------------------------------------------------------------------------------------
E|---------------------------------------------------------------------------------------------------------

Verse 2
Bb                  C
Ash covered ground, Boston falls asleep
F                     G
Sirens finally cease, memories to keep
Bb                         C
Can't get through the day, dreading the next week
F                    G
Have to find my way, time to take a leap

Chorus

F
Hold on
G
Stand strong
Bb          C
Keep moving along
F
Hold on
G
Stand strong
Bb          C
Keep moving along (baby)

Break

Am - C - G - D (x4)

Stop on last D

Chorus

F
Hold on
G
Stand strong
Bb          C
Keep moving along
F
Hold on
G
Stand strong
Bb          C
Keep moving along (maybe)
F
Hold on
G
Stand strong
Bb          C
Keep moving along
F
Hold on
G
Stand strong
Bb          C
Keep moving along (baby)
Добавлено: 02.12.2015
Другие материалы по этой песне:
  • Аккорды и текст

Страница создана 02.12.2015
http://primanota.ru/radio-caroline/move-along-chords.htm
Привет, Гость.
Предлагаем пройти революционный курс по гитаре.
Подарок от PrimaNota.Ru, забирай!