PrimaNota.ru - самый крупный в мире бесплатный архив песенных текстов, аккордов, табулатур и нот


Radiator Hospital - A Game Of You - таба, видео

Регистрация Запомнить меня
Войти через:  Facebook Google Twitter Vk Yandex Mail.ru

Radiator Hospital - A Game Of You - таба, видео

Печатать
Просмотров: 137
-------------------------------------------------------------------------------
                          A Game Of You - Radiator Hospital
-------------------------------------------------------------------------------
Tabbed by: squintyjoefan
E-mail: squintyjoefan@hotmail.co.uk

Track 4 from the EP "Some Distant Moon"

Details can be found at: http://radiatorhospital.bandcamp.com

Tuning: Standard (EADGBe)

Verse 1

e|---------------------------------------------------------------------------|
B|---------------------------------------------------------------------------|
G|------6---7----9---5---5---7-------------5-5----7----------2---6---7-----8-|
D|-3--7---8---10---3---7-7-8---10-10--3-3--7-7--8---10-10--3---7---8-8-10-10-|
A|-3--7---8---10---3---7---8---10-10--3-3--7-7--8---10-10--3---7---8---10-10-|
E|-1--5---6----8---1---5---6----8--8--1-1--5-5--6----8--8--1---5---6----8--8-|

Chorus 1

e|---------------------------------------------------------------------------|
B|---------------------------------------------------------------------------|
G|---7-----7------5------5-------5-----5------5------5-----------------------|
D|-8---8-8---8-10---10-10--10--7---7-7---7--6---6--5---5---------------------|
A|-8---8-8---6-10---10-10--10--7---7-7---7--4---4--3---3---------------------|
E|-6---6-6---6--8----8--8---8--5---5-5---5-----------------------------------|

e|---------------------------------------------------------------------------|
B|-------------------------------------5-------------------------------------|
G|---7-----7------5------5-------6-----6-------------5-----------------------|
D|-8---8-8---8-10---10-10--10--7---7-7---7--6---6--5---5---------------------|
A|-8---8-8---6-10---10-10--10--7---7-7---7--4---4--3---3---------------------|
E|-6---6-6---6--8----8--8---8--5---5-5---5-----------------------------------|

Verse 2

e|---1-----------------------------------------------------------------------|
B|---1------5-------------------------------5--------------------------------|
G|----------6------7------------------------6---7----------------------------|
D|-3---3--7---7--8---8--10-10-------3---3-7---8---10-10----------------------|
A|-3---3--7---7--8---8--10-10-------3---3-7---8---10-10----------------------|
E|-1---1--5---5--6---6---8--8-------1---1-7---6----8--8----------------------|

e|---------------------------------------------------------------------------|
B|---1------5------------------1------5--------------------------------------|
G|---2------6-----7------9-----2------6-----7------9-------------------------|
D|-3-----7-----8-----10-----3-----7-----8------10----------------------------|
A|-3-----7-----8-----10-----3-----7-----8------10----------------------------|
E|-1-----5-----6------8-----1-----5-----6-------8----------------------------|


Chorus 2

e|---------------------------------------------------------------------------|
B|---------------------------------5-----------------------------------------|
G|----7-----7-------7-------7------6------------5------5---------------------|
D|--8---8-8---8--10---10-10---10-7---7-7--7---6---6--5---5-------------------|
A|--8---8-8---8--10---10-10---10-7---7-7--7---4---4--3---3-------------------|
E|--6---6-6---6---8----8--8----8-5---5-5--5----------------------------------|


e|---------------------------------------------------------------------------|
B|--------------------------8------5-----------------------------------------|
G|----7-----7-------9-------9------6-----6-------5------5--------------------|
D|--8---8-8---8--10---10-10---10-7---7-7---7---6---6--5-5-5------------------|
A|--8---8-8---8--10---10-10---10-7---7-7---7---4---4--3---3------------------|
E|--6---6-6---6---8----8--8----8-5---5-5---5---------------------------------|

Outro

e|---------------------------------------------------------------------------|
B|----1----------------------------------------------------------------------|
G|----2------6------7-------9------------------------------------------------|
D|--3---3--7---7--8---8--10---10---3-----------------------------------------|
A|--3---3--7---7--8---8--10---10---3-----------------------------------------|
E|--1---1--5---5--6---6---8----8---1-----------------------------------------|



************************************

| /   slide up
| \   slide down
| h   hammer-on
| p   pull-off
| ~   vibrato
| +   harmonic
| x   Mute note
| b   Bend
| pb  Pre-bend
| br  Bend release
| pbr Pre-bend release
| brb Bend release bend

************************************
Добавлено: 21.10.2013
Другие материалы по этой песне:
  • Аккорды и текст

Страница создана 21.10.2013
http://primanota.ru/radiator-hospital/a-game-of-you-chords.htm
Привет, Гость.
Предлагаем пройти революционный курс по гитаре.
Подарок от PrimaNota.Ru, забирай!