PrimaNota.ru - самый крупный в мире бесплатный архив песенных текстов, аккордов, табулатур и нот


Radar Bros - Is That Blood - таба, видео

Регистрация Запомнить меня
Войти через:  Facebook Google Twitter Vk Yandex Mail.ru

Radar Bros - Is That Blood - таба, видео

Печатать
Просмотров: 138
ARTIST: Radar Bros.
ALBUM: The Fallen Leaf Pages
SONG: Is That Blood
YEAR: 2005
TABBED BY: and frosting

Tuning: Standard (E A D G B e)

Chords used:(the number '2' indicates a power chord; an asterisk(*) indicates a 
chord shape variation.)
Bbm: x13321
C#*: x4312x (bar this at the first fret if you can, it's easier to play.)
F# : 244322
F  : 133211
G# : 466544
C#2: x466xx
G#2: 466xxx
F#2: 244xxx


Order of parts:
A (intro)
B (verse 1)
C (chorus 1)
B (verse 2)
C (chorus 2)
D (guitar solo)
A (outro)

	A) Intro: Guitar 1 (clean, high treble)
	Bbm
e|---------------------------------------------------------------------------|
B|---------2-----2-----2-----------------------------------------------------|
G|-------3---3-----3-----3---------------------------------------------------|
D|-----3-------3-----3-----3-------------------------------------------------|
A|---1-----------------------------------------------------------------------|
E|---------------------------------------------------------------------------|

	B) Verse: Guitar 1. The pattern is bass note (A or E string) to the fourth
  string from the bass note and back to the note before the bass. This is true
  for everything except the F chord, which follows the intro pattern.

	C#*			             F#			            F	Bbm
e|---------------------------------------------------------------------------|
B|--------2-----------------------------------------------------2------------|
G|------1---1-----------3-------------2-----2-----2-----------3---3----------|
D|----3-------3-------4---4---------3---3-----3-----3-------3-------3--------|
A|--4---------------4-------4-----3-------3-----3-----3---1------------------|
E|----------------2-------------1--------------------------------------------|
	Walk     me through...		  				   With a smile...	
   C#*		         F#		         F		           Bbm
e|---------------------------------------------------------------------------|
B|-------2-------------------------------------2-----2-----2------------2----|
G|-----1---1---------3------------2----------3---3-----3-----3--------1---1--|
D|---3-------3-----4---4--------3---3------3-------3-----3-----3----3-------3|
A|-4-------------4-------4----3-------3--1------------------------4----------|
E|-------------2------------1------------------------------------------------|
	we will devour each other's kin...			   Send you all asleep now...
    F#		         F					                Bbm	C#*	F#
e|---------------------------------------------------------------------------|
B|---------------------------------------------2------------2----------------|
G|-------3------------2-----2-----2----------3---3--------1---1---------3----|
D|-----4---4--------3---3-----3-----3------3-------3----3-------3-----4---4--|
A|---4-------4----3-------3-----3-----3--1------------4-------------4-------4|
E|-2------------1-------------------------------------------------2----------|
	as the tide...					Your dreams...
   F			           Bbm
e|---------------------------------------------------------------------------|
B|--------------------2-----2-----2------------------------------------------|
G|-------2----------3---3-----3-----3----------------------------------------|
D|-----3---3------3-------3-----3-----3--------------------------------------|
A|---3-------3--1------------------------------------------------------------|
E|-1-------------------------------------------------------------------------|

	NOTE: During Verse 2, Guitar 2 puts on a little treble (maybe some overdrive, too) 
and plays the first section of this. It is played at the beginning of each line. 
At the end of the last line before the chorus it plays the second part of the tab 
(noted by the /).

	  Bbm 						                        F 	Bbm
e|---------------------------/------------------------------------------------|
B|--5b6-------(r6)-----------/--4\1-------------------------------------------|
G|---------------------------/------------2b3---------------------------------|
D|---------------------------/------------------------------------------------|
A|---------------------------/------------------------------------------------|
E|---------------------------/------------------------------------------------|


	C) Chorus: Guitars 1&2. Guitar 1 keeps the same distortion as the previous 
time; Guitar 2 should have a heavy crunch. The two tabs below are meant to be in sync.
	Guitar 1
	     C#*			          G#			           F#
e|---------------------------------------------------------------------------|
B|----------1----------------------------------------------------------------|
G|--------2---2----------5------------3------------3-------------------------|
D|------3-------3------6---6--------4---4--------4---4-----------------------|
A|----4--------------6-------6----4-------4----4-------4---------------------|
E|-----------------4------------2------------2-------------------------------|x4
	
	Guitar 2
	      C#2			         G#2			         F#2
e|---------------------------------------------------------------------------|
B|---------------------------------------------------------------------------|
G|----6--6--6--6-6-----------------------------------------------------------|
D|----6--6--6--6-6-6--6--6--6-6-4--4--4--4-4--4--4--4-4----------------------|
A|----4--4--4--4-4-6--6--6--6-6-4--4--4--4-4--4--4--4-4----------------------|
E|-----------------4--4--4--4-4-2--2--2--2-2--2--2--2-2----------------------|x4


	D) Guitar Solo: Guitar 1. Guitar 1 switches to is completely clean for the solo, 
the pickup switch should be all the way up (or at rhythm, for a Les Paul.) The solo 
is played over the chorus exactly as the chorus is written. It's actually minor 
variations on this, but this is basically it.
    C#2				              G#2				           F#2
e|--------------------------------------------------------------11-----------|
B|-----9----9----9----11p9----9-----9----9---9-----9h11p9---9----------------|
G|--10---10---10---10------10----10---10---10---10-------10--10--------------|
D|---------------------------------------------------------------------------|
A|---------------------------------------------------------------------------|
E|---------------------------------------------------------------------------|x6ish


LYRICS:
Walk me through the orchard
With a smile, we will devour each other's kin
Send you all asleep now
As the tide comes in again
Your dreams, washing through the trees

Hey, is that blood
washing through our feet again
Is that blood
coming from me
And hey, are those tears
Washing through my fingers from you?

Kind and ordinary,
With a smile we will forgive the ones we kill
So we're all awake now
As the tide returns again
The end washes through our feet.

Hey, are those waves
crashing on our heads again
Are those waves 
burying me
And hey, are those tears
flowing from the trees around me?

************************************

| /   slide up
| \   slide down
| h   hammer-on
| p   pull-off
| ~   vibrato
| +   harmonic
| x   Mute note
| b   Bend
| pb  Pre-bend
| br  Bend release
| pbr Pre-bend release
| brb Bend release bend

************************************ 
Добавлено: 09.10.2013
Другие материалы по этой песне:
  • Аккорды и текст

Страница создана 09.10.2013
http://primanota.ru/radar-bros/is-that-blood-chords.htm
Привет, Гость.
Предлагаем пройти революционный курс по гитаре.
Подарок от PrimaNota.Ru, забирай!