PrimaNota.ru - самый крупный в мире бесплатный архив песенных текстов, аккордов, табулатур и нот


Racoon - World Without Worries - текст песни, таба, видео

Регистрация Запомнить меня
Войти через:  Facebook Google Twitter Vk Yandex Mail.ru

Racoon - World Without Worries - текст песни, таба, видео

Печатать
Просмотров: 88


Song       : World Without Worries
Artist     : Racoon
Album      : Here We Go, Stereo
By         : Jurgen Krombeen (valkenaer@hotmail.com)
URL        : http//people.zeelandnet.nl/snarfje

Last update: May 26th, 2004
By         : Biglith


Standard tuning

 Bm 7x077x  A5(II) x079(10)x  Em7 022033
 A  577655  D/F#   2x023x     Bm7 x20230
 Bm 799777  G5     3x0033


E |-----------------------------------------------------------------------------------------------------
B |--------------------------------------------------------------------------------------------8--------
G |-----------------------------------------------------------------------------------------------------
D |-----------------------------------------------------------------------------------------------------
A |-----------------------------------------------------------------------------------------------------
E |--------------------------------------------------------------------------------------7/8------------
     *           *           *           *           *           *           *           *

     Bm

E |-----------------------------------------------------------------------------------------------------
B |------7----------------------------------------------------------------------------------------------
G |-----7-----------------------------------------------------------------------------------------------
D |----0------------------------------------------------------------------------------------------------
A |-----------------------------------------------------------------------------------------------------
E |--7--------------------------------------------------------------------------------------------------
     *           *           *           *           *           *           *           *

     Bm

E |-----7-----------------------------------------------------------------------------------------------
B |----7----------------------------------------------------------------------------------------8-------
G |---7-------------------------------------------------------------------------------------------------
D |--9--------------------------------------------------------------------------------------------------
A |-----------------------------------------------------------------------------------------------------
E |--------------------------------------------------------------------------------------7/8------------
     *           *           *           *           *           *           *           *

     Bm                                              A

E |-------------------------------------------------------5---------------------------------------------
B |------7-----------------------------------------------5----------------------------------------------
G |-----7-----------------------------------------------6-----------------------------------------------
D |----0-----------------------------------------------7------------------------------------------------
A |---------------------------------------------------7-------------------------------------------------
E |--7-----------------------------------------------5--------------------------------------------------
     *           *           *           *           *           *           *           *

01 What would you do in a world in a world without worries, where would you go if you needed to hide
07 You're walking away before you lose, you're walking away before you get bruised

     Bm                                              A

E |-------------------------------------------------------5---------------------------------------------
B |------7-----------------------------------------------5----------------------------------------------
G |-----7-----------------------------------------------6-----------------------------------------------
D |----0-----------------------------------------------7------------------------------------------------
A |---------------------------------------------------7-------------------------------------------------
E |--7-----------------------------------------------5--------------------------------------------------
     *           *           *           *           *           *           *           *

02 Would you be brave enough to you're sorry  that he was the one that you broke out of line
08 You're walking away 'cause you got some to lose nd you turn up with four of your friends you motherf*cker

     Bm                                              A5

E |-------7---------------------------------------------------------------------------------------------
B |------7----------------------------------------------10----------------------------------------------
G |-----7----------------------------------------------9------------------------------------------------
D |----9----------------------------------------------7-------------------------------------------------
A |---9----------------------------------------------0--------------------------------------------------
E |--7--------------------------------------------------------------------------------------------------
     *           *           *           *           *           *           *           *

03 You're pretty small in words I guess and I'm growing tired of all those bruises
09 I'm so fed up with your hate and I'm so fed up with your beat

     Bm                                              A5                                  D/F#       G5

E |-------7-----------------------------------------------------------------------------------------3---
B |------7----------------------------------------------10-------------------------------3---3-3----3---
G |-----7----------------------------------------------9---------------------------------2---2-2----0---
D |----9----------------------------------------------7----------------------------------0---0-0----0---
A |---9----------------------------------------------0--------------------------------------------------
E |--7-----------------------------------------------------------------------------------2---2-2----3---
     *           *           *           *           *           *           *           *

04 Can take no more, and you'll cut me for less. Well if you let her bleed I won't leave it at this

 [chorus - dist]

     G5                                  D/F#        G5                                  D/F#      Em7

E |--3---------3-3---3---3-3---3---3-3---------------3---------3-3---3---3-3---3---3-3-------------3----
B |--3---------3-3---3---3-3---3---3-3---3---3-3-----3---------3-3---3---3-3---3---3-3---3---3-3---3----
G |--0---------0-0---0---0-0---0---0-0---2---2-2-----0---------0-0---0---0-0---0---0-0---2---2-2---0----
D |--0---------0-0---0---0-0---0---0-0---0---0-0-----0---------0-0---0---0-0---0---0-0---0---0-0---2----
A |------------------------------------------------------------------------------------------------2----
E |--3---------3-3---3---3-3---3---3-3---2---2-2---3-3---------3-3---3---3-3---3---3-3---2---2-2---0----
     *           *           *           *           *           *           *           *

05 It's kind if an ignoring storm situation and harder then you've ever tried

     Em7                                 D/F#        G5

E |--3---------3-3---3---3-3---3---3-3---------------3---------3-3---3---3-3---3---3-3---3---3-3---3----5-5--5---
B |--3---------3-3---3---3-3---3---3-3---3---3-3-----3---------3-3---3---3-3---3---3-3---3---3-3-3-3----5-5--5---
G |--0---------0-0---0---0-0---0---0-0---2---2-2-----0---------0-0---0---0-0---0---0-0---0---0-0-0-0-------------
D |--2---------2-2---2---2-2---2---2-2---0---0-0-----0---------0-0---0---0-0---0---0-0---0---0-0---0----7-7--7---
A |--2---------2-2---2---2-2---2---2-2------------------------------------------------------------------7-7--7---
E |--0---------0-0---0---0-0---0---0-0---2---2-2---3-3---------3-3---3---3-3---3---3-3---3---3-3-3-3----5-5--5---
     *           *           *           *           *           *           *           *

06 We're faking the real, we're on life simulation and harder than you ever tried

     Bm                                              A5

E |-------7---------------------7-9---9/10---9-7--------------------------------------------------------
B |------7-------------------------------------------10----------------------10-------------------------
G |-----7--------------------------------------------------9-----------9-----------9-----------9--------
D |----9---------------------------------------------------------7-----------------------7--------------
A |---9-------------------------------------------------------------------------------------------------
E |--7--------------------------------------------------------------------------------------------------
     *           *           *           *           *           *           *           *

     Bm                                              A5

E |-------7---------------------7-9---9/10---9-7--------------------------------------------------------
B |------7-------------------------------------------10----------------------10-------------------------
G |-----7--------------------------------------------------9-----------9-----------9-----------9--------
D |----9---------------------------------------------------------7-----------------------7--------------
A |---9-------------------------------------------------------------------------------------------------
E |--7--------------------------------------------------------------------------------------------------
     *           *           *           *           *           *           *           *

     Bm                                              A5 (dist. swell)                    D/F#       G5

E |-------7-----------------------------------------------------------------------------------------3---
B |------7-----------------------------------------------------10------------------------3---3-3----3---
G |-----7--------------------------------------------------9--------9---9----------------2---2-2----0---
D |----9-------------------------------------------------7------------7--------7/0-------0---0-0----0---
A |---9----------------------------------------------0--------------------------------------------------
E |--7-----------------------------------------------------------------------------------2---2-2----3---
     *           *           *           *           *           *           *           *

10 And I'm so fed up with all of your threats, I think now it's time that you're fed up with me

 [repeat chorus]

 [bridge]

E |-----------------------------------------------------------------------------------------------------
B |--2/3-3-3---3----2--------2/3-3-3---3----2--------2/3-3-3---3----2--------2/3-3-3---3-2/3---3-3------
G |--2---2-2---2----0--------2---2-2---2----0--------2---2-2---2----0--------2---2-2---2---2---2-2------
D |--0---0-0---0----2--------0---0-0---0----2--------0---0-0---0----2--------0---0-0---0---0---0-0------
A |--2---2-2---2----2--------2---2-2---2----2--------2---2-2---2----2--------2---2-2---2---2---2-2------
E |-----------------0-----------------------0-----------------------0-----------------------------------
     *           *           *           *           *           *           *           *

11 So I'll say goodnight to the one set aside so tell me who's wrong and in time please tell me who's right


E |----------------2-------------------3---2-----------------------2-------------------3---2------------
B |------2-3---5-------3---------3-5-----------3---------2-3---5-------3---------3-5-----------5--------
G |----2-----------------------2-----------------------2-----------------------2------------------------
D |--4-----------------------4-----------------------4-----------------------4--------------------------
A |-----------------------------------------------------------------------------------------------------
E |-----------------------------------------------------------------------------------------------------
     *           *           *           *           *           *           *           *

12 If you've got the guts that is

E |-----------------------------------------------------------------------------------------------------
B |--2/3-3-3---3----2--------2/3-3-3---3----2--------2/3-3-3---3----2--------2/3-3-3---3-2/3---3-3------
G |--2---2-2---2----0--------2---2-2---2----0--------2---2-2---2----0--------2---2-2---2---2---2-2------
D |--0---0-0---0----2--------0---0-0---0----2--------0---0-0---0----2--------0---0-0---0---0---0-0------
A |--2---2-2---2----2--------2---2-2---2----2--------2---2-2---2----2--------2---2-2---2---2---2-2------
E |-----------------0-----------------------0-----------------------0-----------------------------------
     *           *           *           *           *           *           *           *

13 So I'll sing a song and you'll sing along till somebody screams, hoping it's just a bad dream

E |------------------------------------------0-----------------------------------------------0----------
B |--------------------------------3-----------3-----------------------------------3-----------3--------
G |--------0-----------2---------0-----------------2-------0-----------2---------0-----------------2----
D |------0-----------2-------------------0---------------0-----------2-------------------0--------------
A |--------------0-----------2-----------------------------------0-----------2--------------------------
E |--3-----------------------------------------------3--------------------------------------------------
     *           *           *           *           *           *           *           *

E |------------------------------------------0-----------------------------------------------0----------
B |--------------------------------3-----------3-----------------------------------3-----------3--------
G |--------0-----------2---------0-----------------2-------0-----------2---------0-----------------2----
D |------0-----------2-------------------0---------------0-----------2-------------------0--------------
A |--------------0-----------2-----------------------------------0-----------2--------------------------
E |--3-----------------------------------------------3--------------------------------------------------
     *           *           *           *           *           *   

Добавлено: 09.08.2013
Другие материалы по этой песне:
  • Аккорды и текст

Страница создана 25.06.2012
http://primanota.ru/racoon/world-without-worries-chords.htm
Привет, Гость.
Предлагаем пройти революционный курс по гитаре.
Подарок от PrimaNota.Ru, забирай!