PrimaNota.ru - самый крупный в мире бесплатный архив песенных текстов, аккордов, табулатур и нот


Racoon - World On A Plate - текст песни, таба, видео

Регистрация Запомнить меня
Войти через:  Facebook Google Twitter Vk Yandex Mail.ru

Racoon - World On A Plate - текст песни, таба, видео

Печатать
Просмотров: 77


Song       : World On A Plate
Artist     : Racoon
Album      : Till Monkeys Fly
By         : Jurgen Krombeen (valkenaer@hotmail.com)
URL        : http://people.zeelandnet.nl/snarfje

Last update: October 26th, 2003


Tune guitar down 1/2 step

 Aadd9     x07657  A5     x079(10)0
 A         x07655  F#5    24xxxx
 Dmaj7     x57675  Bmadd4 x20430
 Dmaj7sus2 x57655  Bmadd4 x20450


 [intro and verse riff]

         Aadd9           A               Dmaj7           Dmaj7sus2

Eb |------7-7-----7-7-----5-5-----5-5-----5-5-----5-5-----5-5-----5-5------------
Bb |------5-5-----5-5-----5-5-----5-5-----7-7-----7-7-----5-5-----5-5------------
Gb |------6-6-----6-6-----6-6-----6-6-----6-6-----6-6-----6-6-----6-6------------
Db |------7-7-----7-7-----7-7-----7-7-----7-7-----7-7-----7-7-----7-7------------
Ab |--0---0-0-----0-0-----0-0-----0-0-----5-5-----5-5-----5-5-----5-5------------
Eb |-----------------------------------------------------------------------------
      *       *       *       *       *       *       *       *

01 I don't mind that
02 You're pulling my hair again
03 And I don't mind that
04 You're wearing my shoes again
05 Pencilstripe joke
06 Still stuck upon my chin
07 I don't ever try to argue about that silly mood you're in
08 Cause I know I'll never win


 [chorus riff]

     PM          A5 (let ring)

Eb |--------------0--------------------------------------------------------------
Bb |--------------10---------10----------10------9------------7h9p7--------------
Gb |----------9---9---------------9----------------------7----------7------------
Db |--7---7---7---7--------------------7-----------------------------------------
Ab |--0---0---0---0--------------------------------------------------------------
Eb |-----------------------------------------------------------------------------
      *       *       *       *       *       *       *       *

09 All this is mine - I'll give you my world on a plate anytime

     PM          A5 (let ring)

Eb |--------------0-------------------------------------------7------------------
Bb |--------------10---------10---------------10-----9/10------10----------------
Gb |--9---9---9---9---------------9------9---------------------------------------
Db |--7---7---7---7--------------------------------------------------------------
Ab |--0---0---0---0--------------------------------------------------------------
Eb |-----------------------------------------------------------------------------
      *       *       *       *       *       *       *       *

10 If you can carry the weight, but it stays mine

     PM          A5 (let ring)

Eb |--------------0--------------------------------------------------------------
Bb |--------------10----------10----------10------9-----------7h9p7--------------
Gb |--9---9---9---9---------------9----------------------7----------7------------
Db |--7---7---7---7--------------------------------------------------------------
Ab |--0---0---0---0--------------------------------------------------------------
Eb |-----------------------------------------------------------------------------
      *       *       *       *       *       *       *       *

12 All this is mine - I'll give you my world on a plate anytime

     PM          A5 (let ring)

Eb |--------------0-------9------------------------------------------------------
Bb |--------------10----------10----------10------9-----------7h9p7--------------
Gb |--9---9---9---9---------------9---------------------------------7------------
Db |--7---7---7---7--------------------------------------------------------------
Ab |--0---0---0---0--------------------------------------------------------------
Eb |-----------------------------------------------------------------------------
      *       *       *       *       *       *       *       *

13 I don't blame you
14 For calling me names or bitch
15 Go ahead, take all of me money I don't really give a shit
16 Cause I never sit on it


 [repeat chorus]


 [bridge]

     F#5

Eb |-----------------------------------------------------------------------------
Bb |-----------------------------------------------------------------------------
Gb |-----------------------------------------------------------------------------
Db |-----------------------------------------------------------------------------
Ab |--4---4---4---4---4---4---4---4---4---4---4---4---4---4---4---4--------------
Eb |--2---2---2---2---2---2---2---2---2---2---2---2---2---2---2---2--------------
      *       *       *       *       *       *       *       *

    F#5                              Bmadd4

Eb |----------------------------------0-----0-0---0-----0---0-0-0-0-0------------
Bb |----------------------------------3-----3-3---5-----5---5-5-5-5-5------------
Gb |----------------------------------4-----4-4---4-----4---4-4-4-4-4------------
Db |----------------------------------0-----0-0---0-----0---0-0-0-0--------------
Ab |--4---4---4---4---4---4---4---4---2-----2-2---2-----2-----2-2----------------
Eb |--2---2---2---2---2---2---2---2----------------------------------------------
      *       *       *       *       *       *       *       *

17 Oh what a feeling, what a joy I guess I finally found a treasure


    F#5                              Bmadd4

Eb |----------------------------------0-----0-0---0-----0---0-0-0-0-0------------
Bb |----------------------------------3-----3-3---5-----5---5-5-5-5-5------------
Gb |----------------------------------4-----4-4---4-----4---4-4-4-4-4------------
Db |----------------------------------0-----0-0---0-----0---0-0-0-0--------------
Ab |--4---4---4---4---4---4---4---4---2-----2-2---2-----2-----2-2----------------
Eb |--2---2---2---2---2---2---2---2----------------------------------------------
      *       *       *       *       *       *       *       *

18 Nothing anyone can measure though

    F#5                              Bmadd4

Eb |----------------------------------0-----0-0---0-----0---0-0-0-0-0------------
Bb |----------------------------------3-----3-3---5-----5---5-5-5-5-5------------
Gb |----------------------------------4-----4-4---4-----4---4-4-4-4-4------------
Db |----------------------------------0-----0-0---0-----0---0-0-0-0--------------
Ab |--4---4---4---4---4---4---4---4---2-----2-2---2-----2-----2-2----------------
Eb |--2---2---2---2---2---2---2---2----------------------------------------------
      *       *       *       *       *       *       *       *

19 You know my heart leaves me no choice And to piss against the wind, girl


    F#5                              Bmadd4

Eb |----------------------------------0-----0-0---0-----0---0-0-0-0-0------------
Bb |----------------------------------3-----3-3---5-----5---5-5-5-5-5------------
Gb |----------------------------------4-----4-4---4-----4---4-4-4-4-4------------
Db |----------------------------------0-----0-0---0-----0---0-0-0-0--------------
Ab |--4---4---4---4---4---4---4---4---2-----2-2---2-----2-----2-2----------------
Eb |--2---2---2---2---2---2---2---2----------------------------------------------
      *       *       *       *       *       *       *       *

19 That's another kind of matter so


     Bmadd4                          Bmadd4

Eb |--0-----0-0---0-----0---0-0-0-0-0-0-----0-0---0-----0---0-0-0-0-0------------
Bb |--3-----3-3---5-----5---5-5-5-5-5-3-----3-3---5-----5---5-5-5-5-5------------
Gb |--4-----4-4---4-----4---4-4-4-4-4-4-----4-4---4-----4---4-4-4-4-4------------
Db |--0-----0-0---0-----0---0-0-0-0---0-----0-0---0-----0---0-0-0-0--------------
Ab |--2-----2-2---2-----2-----2-2-----2-----2-2---2-----2-----2-2----------------
Eb |-----------------------------------------------------------------------------
      *       *       *       *       *       *       *       *

20 That's why I let you know          That's why I can't let this go


 [repeat verse]

 [repeat chorus]

      A (let ring)

Eb |-----------------------------------------------------------------------------
Bb |-----------------------------------------------------------------------------
Gb |--6--------------------------------------------------------------------------
Db |--7--------------------------------------------------------------------------
Ab |--0--------------------------------------------------------------------------
Eb |-----------------------------------------------------------------------------
      *       *       *       *       *       *       *       *









Добавлено: 17.09.2013
Другие материалы по этой песне:
  • Аккорды и текст

Страница создана 26.06.2012
http://primanota.ru/racoon/world-on-a-plate-chords.htm
Привет, Гость.
Предлагаем пройти революционный курс по гитаре.
Подарок от PrimaNota.Ru, забирай!