PrimaNota.ru - самый крупный в мире бесплатный архив песенных текстов, аккордов, табулатур и нот


Racoon - Wendy - текст песни, таба, видео

Регистрация Запомнить меня
Войти через:  Facebook Google Twitter Vk Yandex Mail.ru

Racoon - Wendy - текст песни, таба, видео

Печатать
Просмотров: 123


Song       : Wendy
Artist     : Racoon
Album      : Here we go, stereo
By         : Jurgen Krombeen (valkenaer@hotmail.com)
URL        : http://people.zeelandnet.nl/snarfje

Last update: October 10th, 2003


Tune guitar down 1 step

 D5  xx(12)(14)(15)x
 E5  xx(14)(16)(17)x
 F#5 xx(16)(18)(19)x


 [verse riff (dist.)]

D |-----------------------------------------------------------------------------
A |-----------------------------------------------------------------------------
F |-----------------------------------------------------------------------------
C |-----------------------------------------------------------------------------
G |--5-5-5-5-4-4-4-4-2-2-2-2-2-0-0-0-5-5-5-5-4-4-4-4-2-2-2-2-2-0-0-0------------
D |-----------------------------------------------------------------------------
     *       *       *       *       *       *       *       *

01 Daybreak another new day shines   The schooldance is coming
02 She's giving dad the please can I Charlie is taking me
04 She said oh dad give me a break   A miracle is what it takes

       G5                              G5

D |-----------------------------------------------------------------------------
A |----8-8-8-8-8-8-8-------------------8-8-8-8-8-8-8----------------------------
F |----7-7-7-7-7-7-7-------------------7-7-7-7-7-7-7----------------------------
C |----5-5-5-5-5-5-5-------------------5-5-5-5-5-5-5----------------------------
G |------------------0-4-0-4/5---0-------------------0-4-0-4/5-4-2-0------------
D |------------------------------0---3~~~---------------------------------------
     *       *       *       *       *       *       *       *

03 Charlie that worthless son of a gun You'd better ask your mom

 [fill I]

         D5              E5      F#5     D5              E5      F#5

D |-----------------------------------------------------------------------------
A |------15-15---15-15---17-17---19-19---15-15---15-15---17-17---19-19----------
F |------14-14---14-14---16-16---18-18---14-14---14-14---16-16---18-18----------
C |------12-12---12-12---14-14---16-16---12-12---12-12---14-14---16-16----------
G |-----------------------------------------------------------------------------
D |-----------------------------------------------------------------------------
     *       *       *       *       *       *       *       *

05 If you say yes, she can't say no  And dad said allright go but

       G5                              G5

D |-----------------------------------------------------------------------------
A |----8-8-8-8-8-8-8-------------------8-8-8-8-8-8-8----------------------------
F |----7-7-7-7-7-7-7-------------------7-7-7-7-7-7-7----------------------------
C |----5-5-5-5-5-5-5-------------------5-5-5-5-5-5-5----------------------------
G |------------------0-4-0-4/5---0-------------------0-4-0-4/5-4-2-0------------
D |----------------------------------3~~~---------------------------------------
     *       *       *       *       *       *       *       *

06 There is a curfew and behave        Don't spend all your money oh and

  [chorus (dist.)]

D |-----------------------------------------------------------------------------
A |--------------------------5--------------------------------------------------
F |------7-------7-------7-----7---7-----7-------7------------------------------
C |----7---7---7---7---7---7-----7-----7---7---7---7----------------------------
G |--5-------4-----------------------5-------7----------------------------------
D |------------------7-------------------------------7--------------------------
     *       *       *       *       *       *       *       *

07 Wendy                             Be home eleven thirty
08 Wendy                             You'd better listen to your daddy

09 Eleven thirty home she is: Mom, dad... I'm going to bed
10 Kiss kiss and goes upstairs, sneaking down the window tearing up her rental dress

       G5                              G5

D |-----------------------------------------------------------------------------
A |----8-8-8-8-8-8-8-------------------8-8-8-8-8-8-8----------------------------
F |----7-7-7-7-7-7-7-------------------7-7-7-7-7-7-7----------------------------
C |----5-5-5-5-5-5-5-------------------5-5-5-5-5-5-5----------------------------
G |------------------0-4-0-4/5---0-------------------0-4-0-4/5-4-2-0------------
D |----------------------------------3~~~---------------------------------------
     *       *       *       *       *       *       *       *

11 Her friends are waiting down the street: hey Charlie, Tom and Emma here is


 [repeat chorus]

12 Wendy                             Bought a bit of brandy
13

 [bridge - not a f*cking clue what's going on here]

D |-----------------------------------------------------------------------------
A |-----------------------------------------------------------------------------
F |-----------------------------------------------------------------------------
C |-----------------------------------------------------------------------------
G |-----------------------------------------------------------------------------
D |-----------------------------------------------------------------------------
     *       *       *       *       *       *       *       *

14 Safe sex and liquor in the punch, hangs out with Charlie and the bunch

     C       G/B     A               C       G/B     A5 (let ring)

D |-----------------------------------------------------------------------------
A |--------------------------3p2------------------------------------------------
F |------0-------0-2-----2-------2-------0-------0------------------------------
C |----2-------0---2---2---2-------2---2-------0-----2--------------------------
G |--3-----0-2-----0-----------------3-----0-2-------0--------------------------
D |-----------------------------------------------------------------------------
     *       *       *       *       *       *       *       *

15 Wendy            In the backseat of a Chevy

D |-----------------------------------------------------------------------------
A |-----------------------------------------------------------------------------
F |-----------------------------------------------------------------------------
C |-----------------------------------------------------------------------------
G |--5-5-5-5-4-4-4-4-2-2-2-2-2-2-2-0-5-5-5-5-4-4-4-4-2-2-2-2-2-0-0-0------------
D |-----------------------------------------------------------------------------
     *       *       *       *       *       *       *       *

16 Supposedly the night is gone, Wendy had lots of fun

D |-----------------------------------------------------------------------------
A |-----------------------------------------------------------------------------
F |-----------------------------------------------------------------------------
C |-----------------------------------------------------------------------------
G |--5-5-5-5-4-4-4-4-2-2-2-2-2-2-2-0-5-5-5-5-4-4-4-0-2--------------------------
D |-----------------------------------------------------------------------------
     *       *       *       *       *       *       *       *

17 But daddy screams what have you done Grounded till twenty-one

 [repeat chorus]

18 Wendy, you should have listened to your daddy












Добавлено: 25.12.2013
Другие материалы по этой песне:
  • Аккорды и текст

Страница создана 12.05.2012
http://primanota.ru/racoon/wendy-chords.htm
Привет, Гость.
Предлагаем пройти революционный курс по гитаре.
Подарок от PrimaNota.Ru, забирай!