PrimaNota.ru - самый крупный в мире бесплатный архив песенных текстов, аккордов, табулатур и нот


Racoon - Water By The Bed - текст песни, таба, видео

Регистрация Запомнить меня
Войти через:  Facebook Google Twitter Vk Yandex Mail.ru

Racoon - Water By The Bed - текст песни, таба, видео

Печатать
Просмотров: 85
Уроки эстрадного вокала в Санкт-Петербурге


Song       : Water by the bed
Artist     : Racoon
Album      : Here we go, stereo
By         : Jurgen Krombeen (valkenaer@hotmail.com)
URL        : http://people.zeelandnet.nl/snarfje

Last update: October 15th, 2003


Tune guitar down 1 step

 D7sus2 xx0210  C   x32013
 Fadd9  xx3213  G   320003
 D/c    x3x23x  Am7 x02013


Tune guitar down 1 step

 [intro and verse riff]

     D7sus2          Fadd9           D7sus2          Fadd9

D |--------0---------------3---------------0------------------------------------
A |--3p1-------1-----3p1-------1-----3p1-------1-----3p1---0---1----------------
F |------2---------------2---------------2---------------2----------------------
C |--0-----------0---3-----------3---0-----------0---3--------------------------
G |-----------------------------------------------------------------------------
D |-----------------------------------------------------------------------------
     *       *       *       *       *       *       *       *

     D7sus2          Fadd9           D7sus2          Fadd9

D |--------0---------------3---------------0------------------------------------
A |--3p1-------1-----3p1-------1-----3p1-------1-----0-------1------------------
F |------2---------------2---------------2---------------2-------2--------------
C |--0-----------0---3-----------3---0-----------0---3--------------------------
G |-----------------------------------------------------------------------------
D |-----------------------------------------------------------------------------
     *       *       *       *       *       *       *       *

01 Stay alone love, mommy's going away tonight
02 Leave the light in the hallway on when you are frightened
05 Say goodnight love, 'cause daddy's going away tonight
06 Don't you worry, I promise I'll be home on time
07 You'll be fine love, doggy's there so you won't be alone
08 You're a big girl. We'll be back before you know

 [prechorus]

     D/C             D               Fadd9

D |----------------------------------------------1---0--------------------------
A |--1----------3----3----------3----1------------------0--1--------------------
F |----------2-----2---------2-----2-------2-----------------2------------------
C |------------------0---------------3-------3-------3-------3------------------
G |--3-------3------------------------------------------------------------------
D |-----------------------------------------------------------------------------
     *       *       *       *       *       *       *       *

     D/C             D               Fadd9

D |----------------------------0----/5-----0------------------------------------
A |--1---------3-----3--------------------------1~~~----------------------------
F |----------2-----2------------------------------------------------------------
C |------------------0----------------------------------------------------------
G |--3-------3------------------------------------------------------------------
D |-----------------------------------------------------------------------------
     *       *       *       *       *       *       *       *

03 And try not to be sad
04 There's water by the bed
09 And please try not to scream
10 cause it's not all bad you see


 [chorus]

     C               G               Am7             Fadd9

D |--------------3---------------------------3-------3p0------------------------
A |--0-------1-------1-------0-------1-----------1---1--------------------------
F |--0---------------0---------------0---------------2--------------------------
C |--2---------------0---------------2---------------3--------------------------
G |--3-------------------------------0------------------------------------------
D |------------------3----------------------------------------------------------
     *       *       *       *       *       *       *       *

09 I'm begging you please don't go
10 I'm scared alone mom, you should know
11 I'm scared of dreaming on my own
12 I'm begging you mom please don't turn the light down low

13 See you soon love, we'll be home around eleven
14 When you're hungy, there's some dinner in the oven







Добавлено: 16.01.2014
Другие материалы по этой песне:
  • Аккорды и текст

Страница создана 24.02.2012
http://primanota.ru/racoon/water-by-the-bed-chords.htm
Привет, Гость.
Предлагаем пройти революционный курс по гитаре.
Подарок от PrimaNota.Ru, забирай!