PrimaNota.ru - самый крупный в мире бесплатный архив песенных текстов, аккордов, табулатур и нот


Racoon - Walk Away - текст песни, таба, видео

Регистрация Запомнить меня
Войти через:  Facebook Google Twitter Vk Yandex Mail.ru

Racoon - Walk Away - текст песни, таба, видео

Печатать
Просмотров: 121
Racoon – Walk Away
Album: Another Day 
By: Marcel Bamberg 

Tuning: half step down

Chords:
Am    : x02210
Aadd9 : x02200
G     : 320033
Fmaj7 : xx3210


Riff 1(Intro):   
    Am        G            Am        G
e|--------0-------------|--------0-------------|
B|--1h3-----3-0---------|--1h3-----3-0h1-------|
G|------2---------0---0-|------2---------0---0-|
D|--------------0—--0---|--------------0-—-0---|
A|--0-------0-----------|--0-------0-----------|
E|------------3-------3-|------------3-------3-|

    Am        G            Am        G
e|--------0-------------|--------0-------------|
B|--1h3-----3-0---------|--1h3-----3-0h1-------|
G|------2---------0---0-|------2---------0---0-|
D|--------------0—--0---|--------------0-—-0---|
A|--0-------0-----------|--0-------0-----------|
E|------------3-------3-|------------3-------3-|

Riff 2(Verse 1 + 2):
    Am        G            Am        G
e|--------0-------------|--------0-------------|
B|--1h3-----3-0---------|--1h3-----3-0h1-------|
G|------2---------0---0-|------2---------0---0-|
D|--------------0—--0---|--------------0-—-0---|
A|--0-------0-----------|--0-------0-----------|
E|------------3-------3-|------------3-------3-|
You cover your eyes,  if you can't stand the sight, walk

    Am        G            Am        G
e|--------0-------------|--------0-------------|
B|--1h3-----3-0---------|--1h3-----3-0h1-------|
G|------2---------0---0-|------2---------0---0-|
D|--------------0—--0---|--------------0-—-0---|
A|--0-------0-----------|--0-------0-----------|
E|------------3-------3-|------------3-------3-|
    away

    Am        G            Am        G
e|--------0-------------|--------0-------------|
B|--1h3-----3-0---------|--1h3-----3-0h1-------|
G|------2---------0---0-|------2---------0---0-|
D|--------------0—--0---|--------------0-—-0---|
A|--0-------0-----------|--0-------0-----------|
E|------------3-------3-|------------3-------3-|
You cover your ears, so you don't have to hear, walk

    Am        G            Am        G
e|--------0-------------|--------0-------------|
B|--1h3-----3-0---------|--1h3-----3-0h1-------|
G|------2---------0---0-|------2---------0---0-|
D|--------------0—--0---|--------------0-—-0---|
A|--0-------0-----------|--0-------0-----------|
E|------------3-------3-|------------3-------3-|
    away

    Am        G            Am        G
e|--------0-------------|--------0-------------|
B|--1h3-----3-0---------|--1h3-----3-0h1-------|
G|------2---------0---0-|------2---------0---0-|
D|--------------0—--0---|--------------0-—-0---|
A|--0-------0-----------|--0-------0-----------|
E|------------3-------3-|------------3-------3-|
You cover your nightmares, you put them away

    Am        G            Fmaj7       Aadd9
e|--------0-------------|--------------------0-|
B|--1h3-----3-0---------|----------1---------0-|
G|------2---------0---0-|------2---------2-----|
D|--------------0—--0---|--3-----------2---2---|
A|--0-------0-----------|----------------------|
E|------------3-------3-|----------------------|
‘Cause if nobody knows them, they might go away, walk

    Fmaj7     Aadd9        Fmaj7     Aadd9
e|--------------------0-|--------------3---0---|
B|--1---0---1-0---1-3---|--1---0---1-0-------3-|
G|------2-------0-------|------2---------2-----|
D|--3-3---3---2---------|--3-3---3---2---—-----|
A|----------------------|----------------------|
E|----------------------|----------------------|
   away                    walk    away

    Fmaj7     Aadd9
e|------------------0---|
B|--1---0---1-0---1-3---|
G|------2-------0-----0-|
D|--3-3---3---2---------|
A|----------------------|
E|----------------------|
   away                Without

    Am        G            Am        G
e|--------0-------------|--------0-------------|
B|--1h3-----3-0---------|--1h3-----3-0h1-------|
G|------2---------0---0-|------2---------0---0-|
D|--------------0—--0---|--------------0-—-0---|
A|--0-------0-----------|--0-------0-----------|
E|------------3-------3-|------------3-------3-|
    me

Riff 3 (End Verse 2)
    Am        G            Am        G
e|--------3---3-------0-|--------3---3---------|
B|--0h1-----1-----3---3-|--0h1-----1-1p0-----0-|
G|------2-------0---0---|------2-----------0---|
D|----------------------|----------------0-----|
A|--0-------0-----------|--0-------0-----------|
E|------------3---------|------------3-------3-|
    me                                   without

    Am        G            Am        G
e|--------3---3-------0-|--------3---3---------|
B|--0h1-----1-----3---3-|--0h1-----1-1p0-----0-|
G|------2-------0---0---|------2-----------0---|
D|----------------------|----------------0-----|
A|--0-------0-----------|--0-------0-----------|
E|------------3---------|------------3-------3-|
    me                                   without

    Fmaj7     Aadd9        Fmaj7     Aadd9
e|--------------------0-|----------------------|
B|--1-------0-----1-3---|--1---0---1-0---1---3-|
G|------2-------0-------|--------------0---0---|
D|--3-3---3---2---------|--3-3---3---2---—-----|
A|----------------------|----------------------|
E|----------------------|----------------------|
    me
Добавлено: 02.06.2012
Другие материалы по этой песне:
  • Аккорды и текст

Страница создана 16.03.2012
http://primanota.ru/racoon/walk-away-chords.htm
Привет, Гость.
Предлагаем пройти революционный курс по гитаре.
Подарок от PrimaNota.Ru, забирай!