PrimaNota.ru - самый крупный в мире бесплатный архив песенных текстов, аккордов, табулатур и нот


Racoon - Tic Toc - текст песни, таба, видео

Регистрация Запомнить меня
Войти через:  Facebook Google Twitter Vk Yandex Mail.ru

Racoon - Tic Toc - текст песни, таба, видео

Печатать
Просмотров: 143
Уроки эстрадного вокала в Санкт-Петербурге


Song       : Tic Toc
Artist     : Racoon
Album      : Here we go, stereo
By         : Jurgen Krombeen (valkenaer@hotmail.com)
URL        : http://people.zeelandnet.nl/snarfje

Last update: April 3rd, 2004


Tune guitar down 1 step

 A    x02220  D5  xx023x  A5 xx79(10)x  D xx0232
 F#m7 2x222x  F#5 xx467x  E5 xx245x
 G    320033  G5  xx578x  Em 022000


 [intro and verse riff - repeat throughout (acoustic)]

     A       F#m7    G               A       F#m7    G

D |-----------------------------------------------------------------------------
A |--------2-------2-------3---5-3-2-------2-------2-------3---2-0--------------
F |------2-------2-------0---------------2-------2-------0----------------------
C |----2-------2-------0---------------2-------2-------0------------------------
G |--0-------------------------------0------------------------------------------
D |----------2-------3-----------------------2-------3--------------------------
     *       *       *       *       *       *       *       *

     A       F#m7    G

D |-----------------------------------------------------------------------------
A |--------2-------2-------3---5-3-2-------2-------2-------3---2-0--------------
F |------2-------2-------0---------------2-------2-------0----------------------
C |----2-------2-------0---------------2-------2-------0------------------------
G |--0-------------------------------0------------------------------------------
D |----------2-------3-----------------------2-------3--------------------------
     *       *       *       *       *       *       *       *

01 Tic Toc, I listen to the clock I wonder if she's gonna come home
02 Or if she's going to stay away again today
03 Tic Toc why don't the bummer stop. She's late, man, just look at the clock
04 I'm fucked already missing her a lot

 [pre-chorus (dist.)]

       D5            F#5   G5  A5      D5            F#5   G5  E5

D |-----------------------------------------------------------------------------
A |----3-3-3-3---3-3-7-7-7-8---10------3-3-3-3---3-3-7-7-7-8---5----------------
F |----2-2-2-2---2-2-6-6-6-7---9-------2-2-2-2---2-2-6-6-6-7---4----------------
C |----0-0-0-0---0-0-4-4-4-5---7-------0-0-0-0---0-0-4-4-4-5---2----------------
G |-----------------------------------------------------------------------------
D |-----------------------------------------------------------------------------
     *       *       *       *       *       *       *       *

05 This is all she seems to do, this is all I need to know

       D5            F#5   G5  A5    D5        C5

D |-----------------------------------------------------------------------------
A |----3-3-3-3---3-3-7-7-7-8-8-10-----------------------------------------------
F |----2-2-2-2---2-2-6-6-6-7-7-9-----7---------5--------------------------------
C |----0-0-0-0---0-0-4-4-4-5-5-7-----7---------5--------------------------------
G |----------------------------------5---------3--------------------------------
D |-----------------------------------------------------------------------------
     *       *       *       *       *       *       *       *

06 O Eleanore why don't you show

             A5              A5              A5              A5

D |-----------------------------------------------------------------------------
A |----------10--------------10--------------10--------------10-----------------
F |----------9---------------9---------------9---------------9------------------
C |----------7---------------7---------------7---------------7------------------
G |-----------------------------------------------------------------------------
D |-----------------------------------------------------------------------------
     *       *       *       *       *       *       *       *

07 Tic Toc, I'm running out of luck, I know that Eleanor is gone now

             A5              A5              A5          G5  G5  G#5

D |-----------------------------------------------------------------------------
A |----------10--------------10--------------10----------8---8---9--------------
F |----------9---------------9---------------9-----------7---7---8--------------
C |----------7---------------7---------------7-----------5---5---6--------------
G |-----------------------------------------------------------------------------
D |-----------------------------------------------------------------------------
     *       *       *       *       *       *       *       *

08 She's gonna lend someone a f.f.f.f.f.

             A5              A5              A5              A5

D |-----------------------------------------------------------------------------
A |----------10--------------10--------------10--------------10-----------------
F |----------9---------------9---------------9---------------9------------------
C |----------7---------------7---------------7---------------7------------------
G |-----------------------------------------------------------------------------
D |-----------------------------------------------------------------------------
     *       *       *       *       *       *       *       *

09 They say it's all a big mistake, and that it's more than I should take

             A5              A5              A5          G5  G5  G#5

D |-----------------------------------------------------------------------------
A |----------10--------------10--------------10----------8---8---9--------------
F |----------9---------------9---------------9-----------7---7---8--------------
C |----------7---------------7---------------7-----------5---5---6--------------
G |-----------------------------------------------------------------------------
D |-----------------------------------------------------------------------------
     *       *       *       *       *       *       *       *

10 O yet I love her so but she don't seem to behave though

       D5            F#5   G5  A5      D5            F#5   G5  E5

D |-----------------------------------------------------------------------------
A |----3-3-3-3---3-3-7-7-7-8---10------3-3-3-3---3-3-7-7-7-8---5----------------
F |----2-2-2-2---2-2-6-6-6-7---9-------2-2-2-2---2-2-6-6-6-7---4----------------
C |----0-0-0-0---0-0-4-4-4-5---7-------0-0-0-0---0-0-4-4-4-5---2----------------
G |-----------------------------------------------------------------------------
D |-----------------------------------------------------------------------------
     *       *       *       *       *       *       *       *

11 This is all she seems to do, this is all I need to know

       D5            F#5   G5  A5    D5        C5

D |-----------------------------------------------------------------------------
A |----3-3-3-3---3-3-7-7-7-8-8-10-----------------------------------------------
F |----2-2-2-2---2-2-6-6-6-7-7-9-----7---------5--------------------------------
C |----0-0-0-0---0-0-4-4-4-5-5-7-----7---------5--------------------------------
G |----------------------------------5---------3--------------------------------
D |-----------------------------------------------------------------------------
     *       *       *       *       *       *       *       *

12 O Eleanore why don't you show

 [chorus]

     G5                                      B5      C5      D5

D |----------3---------------3--------------------------------------------------
A |----------3---------------3--------------------------------------------------
F |--0-------0-------0-------0-------0------------------------------------------
C |--0---------------0---------------0-------4-4-4-4-5-5-5-5-7-7-7-7------------
G |------------------------------------------2-2-2-2-3-3-3-3-5-5-5-5------------
D |--3-------3-------3-------3-------3------------------------------------------
     *       *       *       *       *       *       *       *

13 I wish you could star in all of my shows
14 A different soap every to suit you

    Em                              D

15 Never gonna go anywhere you know Eleanor O no,
16 Never gonna go anywhere you know Eleanor cause I'm all yours love.

 [solo]

D |--------------------------------------------------17----15----14-------------
A |-----/14-/14-12----------------------/14-/14-12------------------------------
F |--------------14--12--14-/16--14--------------14-----------------------------
C |-----------------------------------------------------------------------------
G |-----------------------------------------------------------------------------
D |-----------------------------------------------------------------------------
     *       *       *       *       *       *       *       *

D |-----------------------------------------------------------------------------
A |-----/14-/14-12---------------14--12-----------------------------------------
F |--------------14--12--14--16------------14----13-----------------------------
C |--------------------------------------------------14---12--------------------
G |----------------------------------------------------------12~~---------------
D |-----------------------------------------------------------------------------
     *       *       *       *       *       *       *       *

17 So true, I've got a lot to do I can always read a book
18 Or even watch Have I Got News For You
19 Tic Toc I'm thinking about a lot, wwhy does the beauty always stop
20 And makes you wish you had a brick for a heart


 [repeat pre-chorus and chorus]

 [outro]

D |-----------------------------------------------------------------------------
A |----8-8-8-8-108-----1313131312--10--8-8-8-8-108---6-6-6-5---6/8--------------
F |----0-0-0-0-0-0-----0-0-0-0-0---0---0-0-0-0-0-0---0-0-0-0---0-0--------------
C |-----------------------------------------------------------------------------
G |----101010101210----1515151514--12--101010101210--8-8-8-7---8/10-------------
D |-----------------------------------------------------------------------------
     *       *       *       *       *       *       *       *

D |-----------------------------------------------------------------------------
A |----8-8-8-8-108-----1313131312--10--8-8-8-8-108---6-6-6-5---6/12-------------
F |----0-0-0-0-0-0-----0-0-0-0-0---0---0-0-0-0-0-0---0-0-0-0---0-0--------------
C |-----------------------------------------------------------------------------
G |----101010101210----1515151514--12--101010101210--8-8-8-7---8/14-------------
D |-----------------------------------------------------------------------------
     *       *       *       *       *       *       *       *




Добавлено: 16.01.2014
Другие материалы по этой песне:
  • Аккорды и текст

Страница создана 17.04.2012
http://primanota.ru/racoon/tic-toc-chords.htm
Привет, Гость.
Предлагаем пройти революционный курс по гитаре.
Подарок от PrimaNota.Ru, забирай!