PrimaNota.ru - самый крупный в мире бесплатный архив песенных текстов, аккордов, табулатур и нот


Racoon - Spit Your Heart Out - аккорды и текст, видео

Регистрация Запомнить меня
Войти через:  Facebook Google Twitter Vk Yandex Mail.ru

Racoon - Spit Your Heart Out - аккорды и текст, видео

Печатать
Просмотров: 44
Spit Your Heart Out
Racoon
-------------------------------------------------------------------------------
                             Spit Your Heart Out - Racoon
                            From the album All In Good Time
-------------------------------------------------------------------------------

Tabbed by: nolanvdwillige

Tuning: half a step down (Eb - Ab - Db - Gb - Bb - Eb)


[INTRO] 4/4
Em 
A
Em
A

[VERSE] 
Em
Spit your heart out
A
Just be careful what you say to me
Em
In the long run 
A
It blows up in your face you see

Em
They're all so friendly
A
They don't know the names of you and me
Em
Well let them talk out loud, real loud
A
If they wanna talk so loudly


[CHORUS] 
Bm                                      A                
But I'm not going to keep those secrets away from you
Bm                                  A
I'm not going to keep those secrets away from you
G                      D/F#          E   
Don't want to hold the tide up every day


[VERSE 2] 
Bm
Spit your heart out
E
Just be careful what you say
Bm
'Cause in the long run 
E
It will blow up eventually

Bm
They're so friendly 
E
They will never even know your name
Bm
Have to watch it serious, and tell me 
E
Why do they control the game


[CHORUS]
C#m                                 Badd9
I'm not going to keep those secrets away from you
C#m                                 Badd9
I'm not going to keep those secrets away from you
A
Tomorrow takes to long


[BRIDGE] 
D                               F#m              E
Don't wanna walk the tide we'll ball through the day (don't fool us much to long)
D                   F#m        E
It's hard to keep a secret nowadays
D               F#m     Badd9
So tired of the secrets anyways


[SOLO] 

 Badd9
|--------------------------------------|
|----12-------10-12p10--9-9------------|
|--------------------------9p7--9/11---|
|9-----------------------------------9-|
|--------------------------------------|
|--------------------------------------|

 Badd9                F#m
|--------------------|-----------------|
|--------------------|-----------------|
|--------------------|-----------------|
|7/9\7-6-------------|---------7h8h9---|
|---------7/9--7-----|---------------7-|
|----------------9p7-|9-5--------------|

 A                         
|--------------------------|
|--------------------------|
|9----9h7-------7/9--------|
|----------9---------7-9---|
|------------------------7-|
|--------------------------|

 E                   Badd9                    F#m
|-----------------------7---------------------|---|
|---------12----10\9\7------------------------|---|
|9------------------------8----------9h8------|---|
|-----------------------------------------7---|---|
|-------------------------------------------7/|9--|
|------12-------------------------------------|---|


[OUTRO] 
F#m 
(...)
        Badd9
Just be careful what you say (spit your heart out)
F#m
(Spit your heart out)
        Badd9
Just be careful what you say (spit your heart out)
F#m
(Spit your heart out)
        Badd9
Just be careful what you say 
F#m
(Spit your heart out)
        Badd9
Just be careful what you say 

F#m                                  
I'm not going to keep those secrets away from you 
Badd9
I'm not going to keep those secrets away from you

F#m                                  
I'm not going to keep those secrets away from you 
Badd9
I'm not going to keep those secrets away from you

F#m                                  
I'm not going to keep those secrets away from you 
Badd9
I'm not going to keep those secrets away from you

F#m                                  
I'm not going to keep those secrets away from you 
Badd9
I'm so tired of the secrets anyway


************************************

| /   slide up
| \   slide down
| h   hammer-on
| p   pull-off

************************************
Добавлено: 28.10.2015
Другие материалы по этой песне:
  • Аккорды и текст

Страница создана 28.10.2015
http://primanota.ru/racoon/spit-your-heart-out-chords.htm
Привет, Гость.
Предлагаем пройти революционный курс по гитаре.
Подарок от PrimaNota.Ru, забирай!