PrimaNota.ru - самый крупный в мире бесплатный архив песенных текстов, аккордов, табулатур и нот


Racoon - Smoothly - текст песни, таба, видео

Регистрация Запомнить меня
Войти через:  Facebook Google Twitter Vk Yandex Mail.ru

Racoon - Smoothly - текст песни, таба, видео

Печатать
Просмотров: 152


Song        : Smoothly
Artist      : Racoon
Album       : Till Monkeys Fly
Publisher   : S.M.A.R.T.
------------------------------------------------------------------------------
Tabbed by   : Kazimir Hermans  / The Netherlands / K.Hermans@chello.nl
------------------------------------------------------------------------------
Last change : October 6th, 2001
==============================================================================
Tuning  Tune guitar in Eb
==============================================================================
Legend      h  = hammer-on           p  = pull-off		  u  = strum up
            b  = bend                r  = bend release        d  = strum down
            /  = slide up/down       = natural harmonic
           [5] = artifical harmonic  ~  = vibrato
            tr = trill               Вґ  = break
            ^  = appegio		 x  = damped
==============================================================================

Intro [0:00-0:51] (5X)

E[-------3p0-------------|-------3p0-------3-----
B[-3h5-------3---1-0-----|-3h5-------3---1---1---
G[-------------0-----2---|-------------0---------
D[-----------------------|-----------------------
A[-----------3-----3---3-|-----------3-----3---3-
E[-0---0-----------------|-0---0-----------------

E[-------3p0-------------|-------3p0-------3-----
B[-3h5-------3---1-0-----|-3h5-------3---1---1---
G[-------------0-----2---|-------------0---------
D[-----------------------|-----------------------
A[-----------3-----3---3-|-0---0-----------------
E[-0---0-----------------|-----------3-----3---3-


Chorus I [0:52-1:01] (1X)

E[-----3-----0-----------|-----7-----------5-----
B[-3-----------2---2-----|-8---------7---7---7---
G[---0-----------0---(0)-|---0---------0---------
D[-----------------------|-----------------------
A[-2---------3-----------|-7---------5---------5-
E[-----------------------|-----------------------

E[-----3-----0-----------|---------------0-------
B[-3-----------2---2-----|-3---2-----2h3---------
G[---0-----------0---(0)-|---0---0---------------
D[-----------------------|-----------------------
A[-2---------3-----------|-1---0-----0-----------
E[-----------------------|-----------------------

Main I [1:02-1:33] (3x):

E[-------3p0-------------|-------3p0-------3-----
B[-3h5-------3---1-0-----|-3h5-------3---1---1---
G[-------------0-----2---|-------------0---------
D[-----------------------|-----------------------
A[-----------3-----3---3-|-----------3-----3---3-
E[-0---0-----------------|-0---0-----------------

E[-------3p0-------------|-------3p0-------3-----
B[-3h5-------3---1-0-----|-3h5-------3---1---1---
G[-------------0-----2---|-------------0---------
D[-----------------------|-----------------------
A[-----------3-----3---3-|-0---0-----------------
E[-0---0-----------------|-----------3-----3---3-

Chorus II [1:34-1:51]

E[-----3-----0-----------|-----7-----------5-----
B[-3-----------2---2-----|-8---------7---7---7---
G[---0-----------0---(0)-|---0---------0---------
D[-----------------------|-----------------------
A[-2---------3-----------|-7---------5---------5-
E[-----------------------|-----------------------

E[-----3-----0-----------|-----10--------10------
B[-3-----------2---2-----|-8---------8-----------
G[---0-----------0---(0)-|---0---0-----0---0-----
D[-----------------------|-----------------------
A[-2---------3-----------|-8-------8-7-------7---
E[-----------------------|-----------------------

E[-----3-----0-----------|-----7-----------5-----
B[-3-----------2---2-----|-8---------7---7---7---
G[---0-----------0---(0)-|---0---------0---------
D[-----------------------|-----------------------
A[-2---------3-----------|-7---------5---------5-
E[-----------------------|-----------------------

E[-----3-----0-----------|
B[-3-----------2---2-----|
G[---0-----------0---(0)-|
D[-----------------------|
A[-2---------3-----------|
E[-----------------------|

Bridge [1:52-2:20]

E[-----10--------10------|-----8-----------------
B[-8---------8-----------|-8-----8---7--- 7h8p7--
G[---0---0-----0---0-----|---0-----------7-----7-
D[-----------------------|-----------0-0---------
A[-8-------8-7-------7---|-6-------6-------------
E[-----------------------|-----------------------

E[-----10--------10------|-----8---------------5-
B[-8---------8-----------|-8-----8---8-----7h8---
G[---0---0-----0---0-----|---0-----------7-------
D[-----------------------|-----------0-0---------
A[-8-------8-7-------7---|-6-------6-------------
E[-----------------------|-----------------------

E[-----10--------10------|-----8-----------------
B[-8---------8-----------|-8-----8---7--- 7h8p7--
G[---0---0-----0---0-----|---0-----------7-----7-
D[-----------------------|-----------0-0---------
A[-8-------8-7-------7---|-6-------6-------------
E[-----------------------|-----------------------

E[-----10--------10------|-----------------5-----
B[-8---------8-----------|-8-/--10---7---7---7---
G[---0---0-----0---0-----|-8-/--10---7-7---------
D[-----------------------|-----------0-----------
A[-8-------8-7-------7---|-6-/--8----------------
E[-----------------------|-----------------------

E[-----------------------|---------
B[-8----------/-10-7---7-|-5---4---
G[-----8------/-10---7---|---5---4-
D[-----------------------|---------
A[-6-----6----/-8--6-----|-3---2---
E[-----------------------|---------

Main II [2:21-2:30]

E[-------3p0---3---------|-------3p0---3---------
B[-3h5-------3-----------|-3h5-------3---3-------
G[-----------------------|-----------------0-----
D[-----------------------|-----------------------
A[-----------3-----------|-----------3-----------
E[-0---0-----------------|-0---0-----------------

E[-------3p0---3---------|-----------------------
B[-3h5-------3-----------|-3/5-3-3---1---0-------
G[-----------------------|---------0---0---0-----
D[-----------------------|-----------------------
A[-----------3-----------|-----------------------
E[-0---0-----------------|-0-----3-------3-------

Main I [2:31-2:51] (2x)

E[-------3p0-------------|-------3p0-------3-----
B[-3h5-------3---1-0-----|-3h5-------3---1---1---
G[-------------0-----2---|-------------0---------
D[-----------------------|-----------------------
A[-----------3-----3---3-|-----------3-----3---3-
E[-0---0-----------------|-0---0-----------------

E[-------3p0-------------|-------3p0-------3-----
B[-3h5-------3---1-0-----|-3h5-------3---1---1---
G[-------------0-----2---|-------------0---------
D[-----------------------|-----------------------
A[-----------3-----3---3-|-0---0-----------------
E[-0---0-----------------|-----------3-----3---3-

Chorus III [2:52-3:30]

E[-----3-----0-----------|-----7-----------5-----
B[-3-----------2---2-----|-8---------7---7---7---
G[---0-----------0---(0)-|---0---------0---------
D[-----------------------|-----------------------
A[-2---------3-----------|-7---------5---------5-
E[-----------------------|-----------------------

E[-----3-----0-----------|-----10--------10------
B[-3-----------2---2-----|-8---------8-----------
G[---0-----------0---(0)-|---0---0-----0---0-----
D[-----------------------|-----------------------
A[-2---------3-----------|-8-------8-7-------7---
E[-----------------------|-----------------------

E[-----3-----0-----------|-----7-----------5-----
B[-3-----------2---2-----|-8---------7---7---7---
G[---0-----------0---(0)-|---0---------0---------
D[-----------------------|-----------------------
A[-2---------3-----------|-7---------5---------5-
E[-----------------------|-----------------------

E[-----3-----0-----------|---------------0-------
B[-3-----------2---2-----|-3---2-----2h3---------
G[---0-----------0---(0)-|---0---0---------------
D[-----------------------|-----------------------
A[-2---------3-----------|-1---0-----0-----------
E[-----------------------|-----------------------

E[-----3-----0-----------|-----7-----------5-----
B[-3-----------2---2-----|-8---------7---7---7---
G[---0-----------0---(0)-|---0---------0---------
D[-----------------------|-----------------------
A[-2---------3-----------|-7---------5---------5-
E[-----------------------|-----------------------

E[-----3-----0-----------|-----10--------10------
B[-3-----------2---2-----|-8---------8-----------
G[---0-----------0---(0)-|---0---0-----0---0-----
D[-----------------------|-----------------------
A[-2---------3-----------|-8-------8-7-------7---
E[-----------------------|-----------------------

E[-----3-----0-----------|-----7-----------5-----
B[-3-----------2---2-----|-8---------7---7---7---
G[---0-----------0---(0)-|---0---------0---------
D[-----------------------|-----------------------
A[-2---------3-----------|-7---------5---------5-
E[-----------------------|-----------------------

Ending (Slow picking ) [3:31-...]

E[----------------0------|------------------0----
B[-3-----3-----3---------|-2-----2-----2h3-------
G[----0-----0------------|----2-----2------------
D[-----------------------|-----------------------
A[-1---------------------|-0---------------------
E[-----------------------|-----------------------

==================================================================================

Добавлено: 04.09.2013
Другие материалы по этой песне:
  • Аккорды и текст

Страница создана 01.07.2012
http://primanota.ru/racoon/smoothly-chords.htm
Привет, Гость.
Предлагаем пройти революционный курс по гитаре.
Подарок от PrimaNota.Ru, забирай!