PrimaNota.ru - самый крупный в мире бесплатный архив песенных текстов, аккордов, табулатур и нот


Racoon - Shooting Star - текст песни, таба, видео

Регистрация Запомнить меня
Войти через:  Facebook Google Twitter Vk Yandex Mail.ru

Racoon - Shooting Star - текст песни, таба, видео

Печатать
Просмотров: 188
Уроки эстрадного вокала в Санкт-Петербурге


Song       : Shooting Star
Artist     : Racoon
Album      : Till Monkeys Fly
By         : Jurgen Krombeen (valkenaer@gmail.com)
URL        : http://people.zeelandnet.nl/snarfje


Last update: October 19th, 2004


Tune guitars down 1 step

 Am7    x07580  Fmin7     x800(10)x  Em     x79080
 Amadd9 x07500  Fmin7sus2 x8008x     Fadd2  x8(10)0(10)8
 D7     x57575  A5        x079(10)x


 [intro (drums and bass)]

01 Shooting star, here you are - the first time you fly by
02 Made a wish, a simple kiss was enough to make me
03 Look at you, now this is you; so surprised how time flies
04 A big-ass car, and dressed you are; smooth and silky, you look nice

 [verse (acoustic)]

     Am7             Amadd9

D |--------------------0-------------------------------0------------------------
A |----------------8-------0-----------------------8-------8--------------------
F |------------5---------------5---------------5---------------5----------------
C |----------7---------------------7---------7---------------------7------------
G |--0-0-0---------------------------0-0-0--------------------------------------
D |-----------------------------------------------------------------------------
     *       *       *       *       *       *       *       *

05 Shooting star, here you are - the second time you fly by

D |--------------------0-------------------------------5------------------------
A |----------------8-------0-----------------------8-------8-------8------------
F |------------5---------------5---------------5---------------5----------------
C |----------7---------------------7---------7----------------------------------
G |--0-0-0---------------------------0-0-0--------------------------------------
D |-----------------------------------------------------------------------------
     *       *       *       *       *       *       *       *

06 Black eyed, star-eyed ten, without reasons why

D |--------------------0-------------------------------0------------------------
A |----------------8-------0-----------------------8-------8--------------------
F |------------5---------------5---------------5---------------5----------------
C |----------7---------------------7---------7---------------------7------------
G |--0-0-0---------------------------0-0-0--------------------------------------
D |-----------------------------------------------------------------------------
     *       *       *       *       *       *       *       *

07 You wind me up before I drop, something's in my eye now

D |--------------------0-------------------------------5------------------------
A |----------------8-------0-----------------------8-------8-------8------------
F |------------5---------------5---------------5---------------5----------------
C |----------7---------------------7---------7----------------------------------
G |--0-0-0---------------------------0-0-0--------------------------------------
D |-----------------------------------------------------------------------------
     *       *       *       *       *       *       *       *

08 In the name of this song and of all that

     D7                                              A5 (dist.)

D |-----------------------------------------------------------------------------
A |--------------7-----------5h7p5-------7-----8-----10----10101010-------------
F |----------------------5---------7-----5-----7--------------------------------
C |--------7---------------7-------------------------7-----7-7-7-7--------------
G |--5-----------------------------------------------0-----0-0-0-0--------------
D |-----------------------------------------------------------------------------
     *       *       *       *       *       *       *       *

I have done wrong (and that's a lot)


 [chorus (dist.)]
                                         A5

D |------------------------------------------------7----------------------------
A |-10p8-8-8---810-8-8-8---810-8-8-8---------10--------10------10---------------
F |--0-0-0-----0-0-0-0-0---0-0-0-0-0-------9-----9---------9--------------------
C |--0-0-0-----0-0-0-0-0---0-0-0-0-0-7------------------------------------------
G |--8-8-8-8---8-8-8-8-8---8-8-8-8-8-0------------------------------------------
D |-----------------------------------------------------------------------------
     *       *       *       *       *       *       *       *

09 How are you, what's going on

                                     A5

D |-----------------------------------------------------------------------------
A |-10p8-8-8---810-8-8-8---810-8-8-8-------------10----10101010-----------------
F |--0-0-0-----0-0-0-0-0---0-0-0-0-0-0-----0-----9-----9-9-9-9------------------
C |--0-0-0-----0-0-0-0-0---0-0-0-0-0-12----9-----7-----7-7-7-7------------------
G |--8-8-8-8---8-8-8-8-8---8-8-8-8-8-10----7-----0-----0-0-0-0------------------
D |-----------------------------------------------------------------------------
     *       *       *       *       *       *       *       *

10 Can I get you anything yo drink

                                         A5

D |------------------------------------------------7----------------------------
A |-10p8-8-8---810-8-8-8---810-8-8-8---------10--------10------10---------------
F |--0-0-0-----0-0-0-0-0---0-0-0-0-0-------9-----9---------9--------------------
C |--0-0-0-----0-0-0-0-0---0-0-0-0-0-7------------------------------------------
G |--8-8-8-8---8-8-8-8-8---8-8-8-8-8-0------------------------------------------
D |-----------------------------------------------------------------------------
     *       *       *       *       *       *       *       *

11 Time flies when you're having fun

                                     E5    E5    D7

D |-----------------------------------------------------------------------------
A |-10p8-8-8---810-8-8-8---810-8-8-8-------------7------------------------------
F |--0-0-0-----0-0-0-0-0---0-0-0-0-0-0-----0-----5------------------------------
C |--0-0-0-----0-0-0-0-0---0-0-0-0-0-12----9-----7------------------------------
G |--8-8-8-8---8-8-8-8-8---8-8-8-8-8-10----7-----5------------------------------
D |-----------------------------------------------------------------------------
     *       *       *       *       *       *       *       *

12 I guess I haven't got that much to say


[bridge]

     Em

D |----------0------------------------------------------------------------------
A |--8-----------8--------------------------------------------------------------
F |--0-------------------0-------------------0----------------------------------
C |--9-----------------------9-----------9-------9------------------------------
G |--7---------------------------7-------------------10----7--------------------
D |-----------------------------------------------------------------------------
     *       *       *       *       *       *       *       *

    Fadd2                                            Stay away

D |----------8------------------------------------------------------------------
A |--10----------10-------------------------------------------------------------
F |--0-------------------0-------------------0----------------------------------
C |--10----------------------10----------10------10-----------------------------
G |--8---------------------------8-------------------10----7--------------------
D |-----------------------------------------------------------------------------
     *       *       *       *       *       *       *       *

              Cause we don't have deal

D |----------0------------------------------------------------------------------
A |--8-----------8--------------------------------------------------------------
F |--0-------------------0-------------------0----------------------------------
C |--9-----------------------9-----------9-------9------------------------------
G |--7---------------------------7-------------------10----7--------------------
D |-----------------------------------------------------------------------------
     *       *       *       *       *       *       *       *

        Stay away            cause when you come you’ll go and

D |----------8------------------------------------------------------------------
A |--10----------10-------------------------------------------------------------
F |--0-------------------0-------------------0----------------------------------
C |--10----------------------10----------10------10-----------------------------
G |--8---------------------------8-------------------10----7--------------------
D |-----------------------------------------------------------------------------
     *       *       *       *       *       *       *       *

leave me numb to stay.


So this is what we've come to


Добавлено: 24.10.2013
Другие материалы по этой песне:
  • Аккорды и текст

Страница создана 27.06.2012
http://primanota.ru/racoon/shooting-star-chords.htm
Привет, Гость.
Предлагаем пройти революционный курс по гитаре.
Подарок от PrimaNota.Ru, забирай!