PrimaNota.ru - самый крупный в мире бесплатный архив песенных текстов, аккордов, табулатур и нот


Racoon - Reach - текст песни, таба, видео

Регистрация Запомнить меня
Войти через:  Facebook Google Twitter Vk Yandex Mail.ru

Racoon - Reach - текст песни, таба, видео

Печатать
Просмотров: 180
Уроки эстрадного вокала в Санкт-Петербурге


Song        : Reach
Artist      : Racoon
Album       : Here we go, Stereo
Publisher   : Sony Music Holland
------------------------------------------------------------------------------
Tabbed by   : Kazimir Hermans  / The Netherlands / K.Hermans@chello.nl
------------------------------------------------------------------------------
Last change : October 6th, 2001
==============================================================================
Tuning  Tune guitar in D
==============================================================================
Legend      h  = hammer-on           p  = pull-off		  u  = strum up
            b  = bend                r  = bend release        d  = strum down
            /  = slide up/down       = natural harmonic
           [5] = artifical harmonic  ~  = vibrato
            tr = trill               Вґ  = break
            ^  = appegio		 x  = damped
==============================================================================

The timing in the tab is way off, so play along with the track.

Intro (8X) [0:00-0:59]

D[--x--x--x--x--x--x--x--x--|--x--x--x--x--
A[--8--8--8--8--7--7--7--7--|--3--3--3--3--
F[--0--0--0--0--0--0--0--0--|--0--0--0--0--
C[--0--0--0--0--0--0--0--0--|--0--0--0--0--
G[--7--7--7--7--5--5--5--5--|--2--2--2--2--
D[--x--x--x--x--x--x--x--x--|--x--x--x--x--

D[--x--x--x--x--x--x--x--x--|--x--x--x--x--
A[--8--8--8--8--7--7--7--7--|-10-10-10-10--
F[--0--0--0--0--0--0--0--0--|--0--0--0--0--
C[--0--0--0--0--0--0--0--0--|--0--0--0--0--
G[--7--7--7--7--5--5--5--5--|--8--8--8--8--
D[--x--x--x--x--x--x--x--x--|--x--x--x--x--


D[--x--x--x--x--x--x--x--x--|--x--x--x--x--x--0--------
A[--8--8--8--8--7--7--7--7--|--3--3--3--3--3--3--3---3-
F[--0--0--0--0--0--0--0--0--|--0--0--0--0--0--0----0---
C[--0--0--0--0--0--0--0--0--|--0--0--0--0--0--0--------
G[--7--7--7--7--5--5--5--5--|--2--2--2--2--3--3--------
D[--x--x--x--x--x--x--x--x--|--x--x--x--x--x--x--------

Chorus (2X) [1:00-1:16]

D[--x-----x-----x-----x-----|--x-----x-----x-----x-----
A[--8-----8-----8-----8-----|--8-----8----10----12-----
F[--0-----0-----0-----0-----|--0-----0-----0-----0-----
C[--0-----0-----0-----0-----|--0-----0-----0-----0-----
G[-10----10----10----10-----|-10----10----12----14-----
D[--x-----x-----x-----x-----|--x-----x-----x-----x-----

D[--x-----x-----x-----x-----|--x-----x----(5)---(7)----
A[--8-----8-----8-----8-----|--8-----8-----8-----8-----
F[--0-----0-----0-----0-----|--0-----0-----0-----0-----
C[--0-----0-----0-----0-----|--0-----0-----0-----0-----
G[--7-----7-----7-----0-----|--0-----0-----0-----0-----
D[--x-----x-----x-----0-----|--8-----8-----8-----8-----


Main (3X) [1:17-1:42]

D[--x--x--x--x--x--x--x--x--|--x--x--x--x--
A[--8--8--8--8--7--7--7--7--|--3--3--3--3--
F[--0--0--0--0--0--0--0--0--|--0--0--0--0--
C[--0--0--0--0--0--0--0--0--|--0--0--0--0--
G[--7--7--7--7--5--5--5--5--|--2--2--2--2--
D[--x--x--x--x--x--x--x--x--|--x--x--x--x--

D[--x--x--x--x--x--x--x--x--|--x--x--x--x--
A[--8--8--8--8--7--7--7--7--|-10-10-10-10--
F[--0--0--0--0--0--0--0--0--|--0--0--0--0--
C[--0--0--0--0--0--0--0--0--|--0--0--0--0--
G[--7--7--7--7--5--5--5--5--|--8--8--8--8--
D[--x--x--x--x--x--x--x--x--|--x--x--x--x--

D[--x--x--x--x--x--x--x--x--|--x--x--x--x--x--0--------
A[--8--8--8--8--7--7--7--7--|--3--3--3--3--3--3--3---3-
F[--0--0--0--0--0--0--0--0--|--0--0--0--0--0--0----0---
C[--0--0--0--0--0--0--0--0--|--0--0--0--0--0--0--------
G[--7--7--7--7--5--5--5--5--|--2--2--2--2--3--3--------
D[--x--x--x--x--x--x--x--x--|--x--x--x--x--x--x--------

Chorus (2X) [1:43-1:59]

D[--x-----x-----x-----x-----|--x-----x-----x-----x-----
A[--8-----8-----8-----8-----|--8-----8----10----12-----
F[--0-----0-----0-----0-----|--0-----0-----0-----0-----
C[--0-----0-----0-----0-----|--0-----0-----0-----0-----
G[-10----10----10----10-----|-10----10----12----14-----
D[--x-----x-----x-----x-----|--x-----x-----x-----x-----

D[--x-----x-----x-----x-----|--x-----x----(5)---(7)----
A[--8-----8-----8-----8-----|--8-----8-----8-----8-----
F[--0-----0-----0-----0-----|--0-----0-----0-----0-----
C[--0-----0-----0-----0-----|--0-----0-----0-----0-----
G[--7-----7-----7-----0-----|--0-----0-----0-----0-----
D[--x-----x-----x-----0-----|--8-----8-----8-----8-----

Bridge I (2X) [1:59-2:17]

D[--x-----------------------|--x-----------------------
A[--8----12----10-----8-----|--8----12----10-----8-----
F[--0-----------------0-----|--0-----------------0-----
C[--0-----------------0-----|--0-----------------0-----
G[-10-------------10----10--|-10-------------10----10--
D[--x-----------------------|--x-----------------------

D[--x-----------------------|--x-----------------------
A[--7-----8-----7-----------|--7-----8-----7-----------
F[--0-----------------7h9---|--0-----------------7--9--
C[--0-----------------------|--0-----------------------
G[--7--------------7--------|--7--------------7--------
D[--x-----------------------|--x-----------------------

Bridge II (2X) [2:18-2:34]

      MUTE THESE NOTES WITH THE PALM OF YOUR HAND      

D[--------------------------|--------------------------
A[--------------------------|--------------------------
F[--------------------------|--------------------------
C[-10-10-10-10-10-10--9--9--|--9-10-10-10-12-12-12-12--
G[--------------------------|--------------------------
D[--------------------------|--------------------------

D[--------------------------|
A[--------------------------|
F[--------------------------|
C[-12-12-10-10-10-12-12-12--|
G[--------------------------|
D[--------------------------|

Chorus (4X) [2:35-3:07]

D[--x-----x-----x-----x-----|--x-----x-----x-----x-----
A[--8-----8-----8-----8-----|--8-----8----10----12-----
F[--0-----0-----0-----0-----|--0-----0-----0-----0-----
C[--0-----0-----0-----0-----|--0-----0-----0-----0-----
G[-10----10----10----10-----|-10----10----12----14-----
D[--x-----x-----x-----x-----|--x-----x-----x-----x-----

D[--x-----x-----x-----x-----|--x-----x----(5)---(7)----
A[--8-----8-----8-----8-----|--8-----8-----8-----8-----
F[--0-----0-----0-----0-----|--0-----0-----0-----0-----
C[--0-----0-----0-----0-----|--0-----0-----0-----0-----
G[--7-----7-----7-----0-----|--0-----0-----0-----0-----
D[--x-----x-----x-----0-----|--8-----8-----8-----8-----

Main (1X) [3:08-...]

D[--x--x--x--x--x--x--x--x--|--x--x--x--x--
A[--8--8--8--8--7--7--7--7--|--3--3--3--3--
F[--0--0--0--0--0--0--0--0--|--0--0--0--0--
C[--0--0--0--0--0--0--0--0--|--0--0--0--0--
G[--7--7--7--7--5--5--5--5--|--2--2--2--2--
D[--x--x--x--x--x--x--x--x--|--x--x--x--x--

D[--x--x--x--x--x--x--x--x--|--x--x--x--x--
A[--8--8--8--8--7--7--7--7--|-10-10-10-10--
F[--0--0--0--0--0--0--0--0--|--0--0--0--0--
C[--0--0--0--0--0--0--0--0--|--0--0--0--0--
G[--7--7--7--7--5--5--5--5--|--8--8--8--8--
D[--x--x--x--x--x--x--x--x--|--x--x--x--x--

D[--x--x--x--x--x--x--x--x--|--x--x--x--x--x--0--------
A[--8--8--8--8--7--7--7--7--|--3--3--3--3--3--3--3---3-
F[--0--0--0--0--0--0--0--0--|--0--0--0--0--0--0----0---
C[--0--0--0--0--0--0--0--0--|--0--0--0--0--0--0--------
G[--7--7--7--7--5--5--5--5--|--2--2--2--2--3--3--------
D[--x--x--x--x--x--x--x--x--|--x--x--x--x--x--x--------

==================================================================================

Добавлено: 26.01.2014
Другие материалы по этой песне:
  • Аккорды и текст

Страница создана 12.04.2012
http://primanota.ru/racoon/reach-chords.htm
Привет, Гость.
Предлагаем пройти революционный курс по гитаре.
Подарок от PrimaNota.Ru, забирай!