PrimaNota.ru - самый крупный в мире бесплатный архив песенных текстов, аккордов, табулатур и нот


Racoon - Impossible - текст песни, таба, видео

Регистрация Запомнить меня
Войти через:  Facebook Google Twitter Vk Yandex Mail.ru

Racoon - Impossible - текст песни, таба, видео

Печатать
Просмотров: 258


Song       : Impossible
Artist     : Racoon
Album      : Till Monkeys Fly
By         : Jurgen Krombeen (valkenaer@hotmail.com)
URL        : http://people.zeelandnet.nl/snarfje

Last update: October 29th, 2003


Tune guitar down 1 step


 [intro (dist.)]

D |-----------------------------------------------------------------------------
A |-----------------------------------------------------------------------------
F |-----------------------------------------------------------------------------
C |----0---0---0---0---0---0---0---0---0---0---0---0---0---0---0----------------
G |----5---5---5---5---5---5---5---5---5---5---5---5---5---5---5/7-7------------
D |-----------------------------------------------------------------------------
     *       *       *       *       *       *       *       *

 [verse riff (repeat)]

D |-----------------------------------------------------------------------------
A |-----------------------------------------------------------------------------
F |------9---9---------------------------9---9----------------------------------
C |--7-7-7-7-7-7-7-6---7---9---7-6-7-7-7-7-7-7-7-7-6---7---9-------7------------
G |--5-5-5-5-5-5-5-------------------5-5-5-5-5-5-5------------------------------
D |-----------------------------------------------------------------------------
     *       *       *       *       *       *       *       *

01 Call me crazy in the head, call me numb and stupid
02 A piece of me has snapped, because of all of that
03 Some time ago I found clear sight - how can you win if you don't find
04 I lost ability to cry about it - it's Im

 [chorus]

D |-----------------------------------------------------------------------------
A |------5-----5-------------------------5-----5--------------------------------
F |----2-----2---2-1---2---4---2-1-2---2-----2---2-1---2---4-------2------------
C |--0-----0-------------------------0-----0------------------------------------
G |-----------------------------------------------------------------------------
D |-----------------------------------------------------------------------------
     *       *       *       *       *       *       *       *

05 Possible                          The more I slip the more I say that it's in

     D9             E

D |-----------------------------------------------------------------------------
A |------5-----5-------------------------5-----5--------------------------------
F |----2-----2---2-1---2---4---2-1-2---2-----2---2-1---2---4-------2------------
C |--0-----0-------------------------0-----0------------------------------------
G |-----------------------------------------------------------------------------
D |-----------------------------------------------------------------------------
     *       *       *       *       *       *       *       *

06 Possible                          Every time I wake

D |-------------------------------------------------------------(7)-------------
A |-------------------------------------------------(7)---(12)------------------
F |------9---9---------------------------9---9----(7)---(7)---------------------
C |--7-7-7-7-7-7-7-6---7---9---7-6-7-7-7-7-7-7(7)-------------------------------
G |--5-5-5-5-5-5-5-------------------5-5-5-5-5----------------------------------
D |-----------------------------------------------------------------------------
     *       *       *       *       *       *       *       *

 [verse riff (repeat)]

D |-----------------------------------------------------------------------------
A |-----------------------------------------------------------------------------
F |------9---9---------------------------9---9----------------------------------
C |--7-7-7-7-7-7-7-6---7---9---7-6-7-7-7-7-7-7-7-7-6---7---9-------7------------
G |--5-5-5-5-5-5-5-------------------5-5-5-5-5-5-5------------------------------
D |-----------------------------------------------------------------------------
     *       *       *       *       *       *       *       *

07 I had a dream about a wall - I fell and broke the circle
08 the skies above came crumbling - shit I'm a poet now
09 I wasn't scared cause you were there high up in our favorite tree
10 Waking up and wondering why it can't be. Cause it's im

 [chorus]

D |-----------------------------------------------------------------------------
A |------5-----5-------------------------5-----5--------------------------------
F |----2-----2---2-1---2---4---2-1-2---2-----2---2-1---2---4-------2------------
C |--0-----0-------------------------0-----0------------------------------------
G |-----------------------------------------------------------------------------
D |-----------------------------------------------------------------------------
     *       *       *       *       *       *       *       *

11 Possible                          The more I slip the more I say that it's im

     D9             E

D |-----------------------------------------------------------------------------
A |------5-----5-------------------------5-----5--------------------------------
F |----2-----2---2-1---2---4---2-1-2---2-----2---2-1---2------------------------
C |--0-----0-------------------------0-----0---------------4---2----------------
G |-----------------------------------------------------------------------------
D |-----------------------------------------------------------------------------
     *       *       *       *       *       *       *       *

12 Possible                          Every time I wake it's you that fades away

 [post-chorus]

     F5            A5      C5  A5    F5            A5      G5A5G5A5

D |-----------------------------------------------------------------------------
A |----------------10--10-/13-10------------------10--10--8-109-10-------------
F |----------------9---9--/12-9-----101010101010109---9---7-9-7-9--------------
C |--101010101010107---7--/10-7-----101010101010107---7---5-7-5-7--------------
G |--8-8-8-8-8-8-8-------------------8-8-8-8-8-8-8------------------------------
D |-----------------------------------------------------------------------------
     *       *       *       *       *       *       *       *

13 And everytime again we tried it blew up in our faces

     F5            A5      C5  A5    G5

D |----------------------------------3---3---3-3-3---0---0---0-0-0-0------------
A |----------------10--10-/13-10----3---3---3-3-3------------------------------
F |----------------9---9--/12-9-----0---0---0-0-0-0h2---2---2-2-2-2------------
C |--101010101010107---7--/10-7-----0---0---0-0-0-0h2---2---2-2-2-2------------
G |--8-8-8-8-8-8-8-----------------------------------0---0---0-0-0-0------------
D |----------------------------------3---3---3-3-3------------------------------
     *       *       *       *       *       *       *       *

14 It's not okay for me to stay

     G5              A5

D |--3---3---3-3-3---0---0---0-0-0-0--------------------------------------------
A |--3---3---3-3-3--------------------------------------------------------------
F |--0---0---0-0-0-0h2---2---2-2-2-2--------------------------------------------
C |--0---0---0-0-0-0h2---2---2-2-2-2--------------------------------------------
G |--0---0---0-0-0-0-0---0---0-0-0-0--------------------------------------------
D |--3---3---3-3-3--------------------------------------------------------------
     *       *       *       *       *       *       *       *

     (let ring)

D |-----------------------------------------------------------------------------
A |-(7)---------------------------------------------(7)---(12)------------------
F |-(7)-------------------------------------------(7)---(7)---------------------
C |-(7)---------------------------------------(7)-------------------------------
G |-----------------------------------------------------------------------------
D |-----------------------------------------------------------------------------
     *       *       *       *       *       *       *       *

                                     Pick scrape

D |---------(7)-----------------------------------------------------------------
A |-----------------------------------------------------------------------------
F |-----------------------------------------------------------------------------
C |-----------------------------------------------------------------------------
G |-----------------------------------------------------------------------------
D |----------------------------------12////////////////////////////////////////0
     *       *       *       *       *       *       *       *







Добавлено: 03.08.2013
Другие материалы по этой песне:
  • Аккорды и текст

Страница создана 08.05.2012
http://primanota.ru/racoon/impossible-chords.htm
Привет, Гость.
Предлагаем пройти революционный курс по гитаре.
Подарок от PrimaNota.Ru, забирай!