PrimaNota.ru - самый крупный в мире бесплатный архив песенных текстов, аккордов, табулатур и нот


Racoon - Ice Cream Time - текст песни, таба, видео

Регистрация Запомнить меня
Войти через:  Facebook Google Twitter Vk Yandex Mail.ru

Racoon - Ice Cream Time - текст песни, таба, видео

Печатать
Просмотров: 230


Song        : Ice Cream Time
Artist      : Racoon
Album       : Till Monkeys Fly
Publisher   : S.M.A.R.T.
------------------------------------------------------------------------------
Tabbed by   : Kazimir Hermans  / The Netherlands / K.Hermans@chello.nl
       m.m.v. Jurgen Krombeen  / The Netherlands / j.krombeen@privaweb.com

------------------------------------------------------------------------------
Last change : August 23th, 2000
==============================================================================
Tuning  Tune guitar down 1 step (DGCFAD)
==============================================================================
Legend      h  = hammer-on           p  = pull-off		  u  = strum up
            b  = bend                r  = bend release        d  = strum down
            /  = slide up/down       = natural harmonic
           [5] = artifical harmonic  ~  = vibrato
            tr = trill               Вґ  = break
            ^  = appegio		 x  = damped
==============================================================================

INTRO amp; VERSE
D|------------------|------------------|------------------|------------------|
A|------------------|------------------|------------------|------------------|
F|------------------|------------------|------------------|------------------|
C|-6h7--7--6--7--66-|-9---6-6-6-6-6-0-|-6h7--7--6--7--66-|-7---6-6-6-9-8-90|
G|-0----0--0--0--00-|-7---4-4-4-4-4-0-|-0----0--0--0--00-|-9---4-4-4-7-7-70|
D|------------------|------------------|------------------|------------------|

1 - Your skin is getting sun-tanned, I don't want to peel it off today.
2 - My body, glitter glamour. Upon my towel I slip away.
3 - Pass me my sunglasses. You sat on yours I still got mine.
4 - The stereo Motorpsychos, just chilling, it's a holiday.

D|------------------|------------------|------------------|------------------|
A|------------------|------------------|------------------|------------------|
F|------------------|------------------|------------------|----------8-9-8---|
C|-6h7--7--6--7--66-|-9---6-6-6-6-6-0-|-6h7--7--6--7--66-|-9---6-9-------9-|
G|-0----0--0--0--00-|-7---4-4-4-4-4-0-|-0----0--0--0--00-|-7---4-----------|
D|------------------|------------------|------------------|------------------|

1 - So pass me the lotion 20, my nose has had enough today.
3 - Just stretch out your right hand. They're in the plastic bag behind.

END VERSE TO CHORUS WITH...
D|------------------|------------------|------------------|------------------|
A|------------------|------------------|------------------|------------------|
F|------------------|------------------|------------------|------------------|
C|-6h7--7--6--7--66-|-9---6-6-6-6-6-0-|-6h7--7--6--7--66-|-11--9-9-9-9-9-9-|
G|-0----0--0--0--00-|-7---4-4-4-4-4-0-|-0----0--0--0--00-|-9---7-7-7-7-7-7-|
D|------------------|------------------|------------------|------------------|

2 - I got to go, I got to go, the sea is calling and
4 - Don't turn 'em off don't turn 'em off..  Just let it play because

CHORUS
D|------------------|------------------|---------------7--|------------------|
A|------------------|------------------|---------------7--|------------------|
F|-1212121212121212-|-1212121212121212-|-9-9-9-9-9-9-9-9--|-9-9-9-9-9-9-9-9--|
C|-1212121212121212-|-1212121212121212-|-9-9-9-9-9-9-9-9--|-9-9-9-9-9-9-9-9--|
G|-1010101010101010-|-1010101010101010-|-7-7-7-7-7-7-7-7--|-7-7-7-7-7-7-7-7--|
D|-x-x-x-x-x-x-x-x--|-x-x-x-x-x-x-x-x--|-x-x-x-x-x-x-x-x--|-x-x-x-x-x-x-x-x--|

The sun is in my head and it's OK

D|------------------|------------------|-7-7-7-7-7-7-7-7--|-10------10-------|
A|------------------|------------------|-8-8-8-8-8-8-8-8--|-8---8-------8----|
F|-5-5-5-5-5-5-5-5--|-7-7-7-7-7-7-7-7--|-9-9-9-9-9-9-9-9--|-9----------------|
C|-5-5-5-5-5-5-5-5--|-7-7-7-7-7-7-7-7--|-9-9-9-9-9-9-9-9--|-9----------------|
G|-3-3-3-3-3-3-3-3--|-5-5-5-5-5-5-5-5--|-7-7-7-7-7-7-7-7--|-7----------------|
D|-x-x-x-x-x-x-x-x--|-x-x-x-x-x-x-x-x--|-x-x-x-x-x-x-x-x--|------------------|

It's an ice cream day (3x)

END CHORUS TO VERSE WITH...
D|------------------|------------------|------------------|------------------|
A|------------------|------------------|------------------|------------------|
F|-5-5-5-5-5-5-5-5--|-7-7-7-7-7-7-7-7--|-9-9-9-9-9-9---9--|-----8-9-8---8----|
C|-5-5-5-5-5-5-5-5--|-7-7-7-7-7-7-7-7--|-9-9-9-9-9-9---9--|---9-------9---9--|
G|-3-3-3-3-3-3-3-3--|-5-5-5-5-5-5-5-5--|-7-7-7-7-7-7---7--|------------------|
D|-x-x-x-x-x-x-x-x--|-x-x-x-x-x-x-x-x--|-x-x-x-x-x-107-x--|------------------|

The sun's in my hea-ea-ea-ea-d............

END CHORUS TO BRIDGE WITH...
D|------------------|------------------|------------------|------------------|
A|------------------|------------------|------------------|------------------|
F|-5-5-5-5-5-5-5-5--|-7-7-7-7-7-7-7-7--|-9-9-9-9-9-9---9--|------------------|
C|-5-5-5-5-5-5-5-5--|-7-7-7-7-7-7-7-7--|-9-9-9-9-9-9---9--|-x-x-5------------|
G|-3-3-3-3-3-3-3-3--|-5-5-5-5-5-5-5-5--|-7-7-7-7-7-7---7--|-x-x-5------------|
D|-x-x-x-x-x-x-x-x--|-x-x-x-x-x-x-x-x--|-x-x-x-x-x-10-7x--|-x-x-3---(ring)---|

BRIDGE (damp low E chord except for last time)
D|------------------|------------------|------------------|------------------|
A|------------------|------------------|------------------|------------------|
F|------------------|------------------|------------------|------------------|
C|-2-2-----5p4------|-2-2-----5p4------|-2-2-----5p4------|------------------|
G|-2-2--------------|-2-2--------------|-2-2--------------|------------------|
D|-0-0---0----------|-0-0---0----------|-0-0---0----------|-0---2---3---7----|

5 - I sweep my sweaty eyes wide open when she's walking by...
6 - Pamela Anderson look-alikes lay naked in the...
7 - I quickly turn around to dig a bigger hole for my best...

D|------------------|------------------|------------------|------------------|
A|------------------|------------------|------------------|-8---8---8-8-----|
F|------------------|------------------|------------------|-7---7---7-7-----|
C|------------------|------------------|----------0-0-----|-5---5---5-5-----|
G|---7p5---5-5--4h5-|-5-5-----5-5------|-4h5-5-5--5-5-----|------------------|
D|-5------------5---|------------------|-5----------------|------------------|

5 - agaaaaaaaaaaaaaaaaaaaaaaaaaaaaaaaaaaaaaaaaain.
6 - saaaaaaaaaaaaaaaaaaaaaaaaaaaaaaaaaaaaaaaaand.
7 - frieeeeeeeeeeeeeeeeeeeeeeeeeeeeeeeeeeeeeeeend.

D|------------------|------------------|-------------7----|------------------|
A|------------------|------------------|-------------7----|------------------|
F|-12--12--12--12---|-12--12--12--12---|-9---9---9---9----|-9---9---9---9----|
C|-12--12--12--12---|-12--12--12--12---|-9---9---9---9----|-9---9---9---9----|
G|-10--10--10--10---|-10--10--10--10---|-7---7---7---7----|-7---7---7---7----|
D|-x---x---x---x----|-x---x---x---x----|-x---x---x---x----|-x---x---x---x----|

8 - Again. Summer...
9 - Again. Well eight more days

D|------------------|------------------|-7---7---7---7----|-10------10-------|
A|------------------|------------------|-8---8---8---8----|-8---8-------8----|
F|-5---5---5---5----|-7---7---7---7----|-9---9---9---9----|-9----------------|
C|-5---5---5---5----|-7---7---7---7----|-9---9---9---9----|-9----------------|
G|-3---3---3---3----|-5---5---5---5----|-7---7---7---7----|-7----------------|
D|-x---x---x---x----|-x---x---x---x----|-x---x---x---x----|------------------|

8 - slips away too fast again
9 - to make them last.


Lyrics:

INTRO
1 - Your skin is getting sun-tanned,
1 - I don't want to peel it off today.
1 - So pass me the lotion 20,
1 - my nose has had enough today.

2 - My body, glitter glamour.
2 - Upon my towel I slip away.
2 - I got to go, I got to go,
2 - the sea is calling and

CHORUS
The sun is in my head and it's OK It's an ice cream day (3x)

3 - Pass me my sunglasses.
3 - You sat on yours I still got mine.
3 - Just stretch out your right hand.
3 - They're in the plastic bag behind.

4 - The stereo Motorpsychos,
4 - just chilling, it's a holiday.
4 - Don't turn 'em off don't turn 'em off..
4 - just let it play because

CHORUS
Their song is in my head and it's OK It's an ice cream day (3x)

5 - I sweep my sweaty eyes wide open when she's walking by again.
6 - Pamela Anderson look-alikes lay naked in the sand.
7 - I quickly turn around to dig a bigger hole for my best friend.

8 - Again. Summer lips away too fast again.
9 - Again. Well eight more days to make them last.

CHORUS
And the sun is in my head and it's OK it's an ice cream day. (3x) 

Добавлено: 12.10.2013
Другие материалы по этой песне:
  • Аккорды и текст

Страница создана 31.07.2012
http://primanota.ru/racoon/ice-cream-time-chords.htm
Привет, Гость.
Предлагаем пройти революционный курс по гитаре.
Подарок от PrimaNota.Ru, забирай!