PrimaNota.ru - самый крупный в мире бесплатный архив песенных текстов, аккордов, табулатур и нот


Racoon - Hilarious - текст песни, таба, видео

Регистрация Запомнить меня
Войти через:  Facebook Google Twitter Vk Yandex Mail.ru

Racoon - Hilarious - текст песни, таба, видео

Печатать
Просмотров: 159


Song       : Hilarious
Artist     : Racoon
Album      : Till Monkeys Fly
By         : Jurgen Krombeen (valkenaer@hotmail.com)
URL        : http://people.zeelandnet.nl/snarfje

Last update: October 9th, 2003


Tune guitar down 1/2 step

 Emaj7 076890     D-5  xx079X  A x07650
 Asus4 x07750     D    xx077x
 D5    xx07(10)x  Dus2 xx09xx


 [intro and verse riff]

      Emaj7         Asus4             Emaj7         A Asus4

Eb |------0---0-0---0---0-----------------0---0-0---0-0---------------------------
Bb |------9---9-9---5---5-----5h7p5-------9---9-9---7-5-7-5-7-5-------------------
Gb |------8---8-8---7---7---7-------7-----8---8-8---7-7---------7-----------------
Db |------6---6-6---7---7-----------------6---6-6---7-7---------------------------
Ab |--7-------------0---0-------------7-------------0-0---------------------------
Eb |--0-------------------------------0-------------------------------------------
      *       *       *       *       *       *       *       *

01 Take a little minute love, take a little time
02 To listen to this record love. t's gonna be just fine
03 It's all about honesty, that won't do you any harm
04 We're going to work our asses off
   It's gonna take a lot of our energy; it's gonna take some time


 [chorus riff]

      D5      D-5 D     Dsus2         D5      D-5 D     D-5

Eb |------------------------------------------------------------------------------
Bb |--10--1010--9-7-------------------10--1010--9-7-----9---9---9-----------------
Gb |--7---7-7---7-7-----9---9---9-----7---7-7---7-7-----7---7---7-----------------
Db |--0---0-0---0-0-----0---0---0-----0---0-0---0-0-----0---0---0-----------------
Ab |------------------------------------------------------------------------------
Eb |------------------------------------------------------------------------------
      *       *       *       *       *       *       *       *

05 This is not a crime, stepping out of line
06 I won't have peace of mind till it's over... till it's perfect and fine


07 Hey now a little serious, we're gonna be just fine
08 A little bit hilarious, our ass is on the line
09 A little bit of modesty won't do us any harm
10 It's gonna take a lot of our energy; it's gonna take some time

 [repeat chorus]

 [bridge]

      D                                       A

Eb |----------------------------------------------------------5-------------------
Bb |--7---7---7-7-7---7---7---9---9---5-------5-7-5---------------5---------------
Gb |--7---7---7-7-7---7---7---9---9---6-------------6-----------------------------
Db |--0---0---0-0-0---0---0---0---0---7-----------------7-------------------------
Ab |----------------------------------0-------------------------------------------
Eb |------------------------------------------------------------------------------
      *       *       *       *       *       *       *       *

11 Something in my head tells me to break
12 It's gonna be all just fine
13 A little bit hilarious it seems to be I know
14 But everything will work out fine





Добавлено: 10.10.2013
Другие материалы по этой песне:
  • Аккорды и текст

Страница создана 16.06.2012
http://primanota.ru/racoon/hilarious-chords.htm
Привет, Гость.
Предлагаем пройти революционный курс по гитаре.
Подарок от PrimaNota.Ru, забирай!