PrimaNota.ru - самый крупный в мире бесплатный архив песенных текстов, аккордов, табулатур и нот


Racoon - Happy Family - текст песни, таба, видео

Регистрация Запомнить меня
Войти через:  Facebook Google Twitter Vk Yandex Mail.ru

Racoon - Happy Family - текст песни, таба, видео

Печатать
Просмотров: 192


Song       : Happy Family
Artist     : Racoon
Album      : Another Day
By         : Jurgen Krombeen (valkenaer@gmail.com)
URL        : http://people.zeelandnet.nl/snarfje

Last update: June 22nd, 2005


Tune guitar down 1/2 step

 G5    3x0033  C  x32010  Bsus4 x2x45x
 Dm    xx0231  E5 x2245x  B     x2x44x
 Fmaj7 x33210  D5 xx023x



 [intro and verse riff]

      G5              Dm              Fmaj7           C

Eb |----------3---0-----------1---0-----------0---0-------------------------------
Bb |----------3---0---3-------3---0-----------1---0---------------1p0-0-----------
Gb |----------0---0---2-------2---2---2-------2---0---0-------0-------------------
Db |--0-------0-------0-------0-------3-------3-------2-------2-------------------
Ab |----------------------------------3-------3-------3-------3-------------------
Eb |--3---------------------------------------------------------------------------
      *       *       *       *       *       *       *       *
      PM              PM              PM              PM

      G5              Dm              Fmaj7           C

Eb |----------3---0-----------1---0-----------0---0-----------------0-------------
Bb |----------3---0---3-------3---0-----------1---0-----------1-------3-----------
Gb |----------0---0---2-------2---2---2-------2---0---0---------0-----------------
Db |--0-------0-------0-------0-------3-------3-------2-------2-------------------
Ab |----------------------------------3-------3-------3-------3-------------------
Eb |--3---------------------------------------------------------------------------
      *       *       *       *       *       *       *       *
      PM              PM              PM              PM

It would be nice if we could all just sit together
Would be great if we could have a cup of everything
Would be lovely to see all your faces smiling
Come on and give me your little grin
Could be wonderful if all the shit I sing about is happening

     G               D                    Em                 D
And it turns out to be we're a happy family

     E5                  D5
But all these families break, everybody's on the take
     E5            D5                              C         D          C        Bsus4/B
All that matters today the kind of money that you make
     E5                  D5
But all these families break, everybody's on the take
     E5           D5                       C                 D          C        Bsus4/B
All that matters today, merry christmas anyway

It would be nice if we could all just live together
would be great if could feel a bit of sympathy
would be lovely if we all stood up together
it's gotta be like a commercial on tv
would be wonderfull if all the shit i sing about is happening

but it turns out te be
there's no happy family
'cause all things baffling great
everybody's on the take
all that matters today
the kind of money that you make
'cause all things baffling great
everybody's on the take
cold turkey today
merry christmas anyway

It would be nice if we could all just sit together
it would be great if we could have a little fun
would be nice if we could be a happy family today
today
today
today



Добавлено: 30.08.2013
Другие материалы по этой песне:
  • Аккорды и текст

Страница создана 30.06.2012
http://primanota.ru/racoon/happy-family-chords.htm
Привет, Гость.
Предлагаем пройти революционный курс по гитаре.
Подарок от PrimaNota.Ru, забирай!