PrimaNota.ru - самый крупный в мире бесплатный архив песенных текстов, аккордов, табулатур и нот


Racoon - Daily News - текст песни, таба, видео

Регистрация Запомнить меня
Войти через:  Facebook Google Twitter Vk Yandex Mail.ru

Racoon - Daily News - текст песни, таба, видео

Печатать
Просмотров: 139


Song       : Daily News
Artist     : Racoon
Album      : Till Monkeys Fly
By         : Jurgen Krombeen (valkenaer@hotmail.com)
URL        : http://people.zeelandnet.nl/snarfje

Last update: October 1st, 2003


Tune guitar down 1/2 step

 F#m 204xxx  E5  xx245x     F#m    x9(11)(11)(10)9
 D   200xxx  F#5 xx467x     F#sus2 x9(11)(11)99
 D5  xx023x  A5  xx79(10)x  Dsus2  x57755


 [intro and verse riff]

      F#m                                                           D
Eb |------------------------------------------------------------------------------
Bb |------------------------------------------------------------------------------
Gb |------------------------------------------------------------------------------
Db |----------------------------------4-----------------------------4-0-----------
Ab |------------0-------0-------0---------------0-------0-------0-----------------
Eb |----2-0-0h2---0-0h2---0-0h2---0h2---2-0-0h2---0-0h2---0-0h2---0h2-------------
      *       *       *       *       *       *       *       *

01 I don't how to get up early
02 A churchbell for alarm is simply not enough
03 I'm scared to lose the dreamy moment
04 So when I get the change I shut it off
05 The dream I dreamt is fading slowly
06 All I know is that I lost the fight
07 Well I'm still tired like I've been working
08 Like I live another life at night
09 Just getting up to drink my coffee
10 I walk towards the toilet do my thing
11 The mailman's kate, repeats the story
12 Shit, he's earlier than yesterday

 [chorus riff]

      D5            E5    D5        E5    D5        E5    D5

Eb |-----------------------------------------------------------------------------
Bb |--3---3-3-3-3-3-5-5---3-3-3-3-3-5-5---3-3-3-3-3-5-5---3-3-3-3-3--------------
Gb |--2---2-2-2-2-2-4-4---2-2-2-2-2-4-4---2-2-2-2-2-4-4---2-2-2-2-2--------------
Db |--0---0-0-0-0-0-2-2---0-0-0-0-0-2-2---0-0-0-0-0-2-2---0-0-0-0-0--------------
Ab |-----------------------------------------------------------------------------
Eb |-----------------------------------------------------------------------------
      *       *       *       *       *       *       *       *

13                         Somehow it seems cut up now
15                         The tube is watching you now

      F#5           A5    F#5       A5    F#5       E5    F#5

Eb |-----------------------------------------------------------------------------
Bb |--7---7-7-7-7-7-1010--7-7-7-7-7-1010--7-7-7-7-7-5-5---7-7-7-7-7--------------
Gb |--6---6-6-6-6-6-9-9---6-6-6-6-6-9-9---6-6-6-6-6-4-4---6-6-6-6-6--------------
Db |--4---4-4-4-4-4-7-7---4-4-4-4-4-7-7---4-4-4-4-4-2-2---4-4-4-4-4--------------
Ab |-----------------------------------------------------------------------------
Eb |-----------------------------------------------------------------------------
      *       *       *       *       *       *       *       *

14                         Twisted views on daily news and all
16                         Turn it off and shake it off now

Guitar II (distorded, let ring) played during verse II

      F#m                             F#sus2                          Dsus2

Eb |------9-------------------------------9-------------------------------5------
Bb |-----10------------------------------9-------------------------------5-------
Gb |----11------------------------------11------------------------------7--------
Db |---11------------------------------11------------------------------7---------
Ab |--9-------------------------------9-------------------------------5----------
Eb |-----------------------------------------------------------------------------
      *       *       *       *       *       *       *       *

      Dsus2

Eb |------5----------------------------------------------------------------------
Bb |-----5-----------------------------------------------------------------------
Gb |----7------------------------------------------------------------------------
Db |---7-------------------------------------------------------------------------
Ab |--5--------------------------------------------------------------------------
Eb |-----------------------------------------------------------------------------
      *       *       *       *       *       *       *       *       *

17 Daily news does nothing new
18 So you read your horoscope to verify they're lying
19 Turn the page in search for white space
20 Desert or snow valleys would be fine
21 There's no joy, no one is dancing
22 Daily news' power makes me cry
23 So what's the use of making chances
24 Why don't we all smile our daisy smiles

 [repeat chorus twice]

 [bridge]

      F#m (let ring)

Eb |--9--9----9--9----9--9-------------------------------------------------------
Bb |--10-10---10-10---10-10------------------------------------------------------
Gb |--11-11---11-11---11-11------------------------------------------------------
Db |--11-11---11-11---11-11------------------------------------------------------
Ab |--9--9----9--9----9--9-------------------------------------------------------
Eb |-----------------------------------------------------------------------------
      *       *       *       *       *       *       *       *


      Em7                             F#m7

Eb |----------0------------------------------------------------------------------
Bb |---------0-------------------------------------------------------------------
Gb |--------7-------------------------------------9------------------------------
Db |-----5----------------------------------7-------------7-----7----------------
Ab |--7-----------------------------7/9-----------------------9------------------
Eb |-----------------------------------------------------------------------------
      *       *       *       *       *       *       *       *

      F#m (palm muted)

Eb |-----------------------------------------------------------------------------
Bb |-----------------------------------------------------------------------------
Gb |-----------------------------------------------------------------------------
Db |--9-9-9p7---------7-------7-------9-9-9p7---------7-------7------------------
Ab |----------9-9---9---9---9---9---9---------9-9---9---9---9---9----------------
Eb |-----------------------------------------------------------------------------
      *       *       *       *       *       *       *       *
25 I'm looking for a smile, I'm looking for a reason why
26 All your reasons why
27 Cause it seems so long ago that people smiled their daily smiles

 [repeat chorus]


Добавлено: 24.11.2013
Другие материалы по этой песне:
  • Аккорды и текст

Страница создана 03.06.2012
http://primanota.ru/racoon/daily-news-chords.htm
Привет, Гость.
Предлагаем пройти революционный курс по гитаре.
Подарок от PrimaNota.Ru, забирай!