PrimaNota.ru - самый крупный в мире бесплатный архив песенных текстов, аккордов, табулатур и нот


Racoon - Couple Of Guys - текст песни, таба, видео

Регистрация Запомнить меня
Войти через:  Facebook Google Twitter Vk Yandex Mail.ru

Racoon - Couple Of Guys - текст песни, таба, видео

Печатать
Просмотров: 160


Song       : Couple of Guys
Artist     : Racoon
By         : Jurgen Krombeen (valkenaer@hotmail.com)
URL        : http://people.zeelandnet.nl/snarfje

Last update: June 14th, 2004


Tune guitar down 1/2 step

 A5   x022xx  Fmaj7/11 133200  Bm7 x2023x  Bsus4 x24450
 G5   3x0033  D        xx0232  A   x02220
 D/F# 2x023x  G5       3x0033  B5  x244xx



 [intro and verse riff]

      A5    G5        A5    G5        A5    G5        A5    G5

Eb |--------3---3-3-3-------3---3-3-3-------3---3-3-3-------3---3-3-3-------------
Bb |--------3---3-3-3-------3---3-3-3-------3---3-3-3-------3---3-3-3-------------
Gb |--0h2-0-0---0-0-0-0h2-0-0---0-0-0-0h2-0-0---0-0-0-0h2-0-0---0-0-0-------------
Db |--0h2-0-0---0-0-0-0h2-0-0---0-0-0-0h2-0-0---0-0-0-0h2-0-0---0-0-0-------------
Ab |--0-0-0-----------0-0-0-----------0-0-0-----------0-0-0-----------------------
Eb |--------3---3-3-3-------3---3-3-3-------3---3-3-3-------3---3-3-3-------------
      *       *       *       *       *       *       *       *

01 There's just a couple of guys in my neighbourhood that put their heads together
02 When they told me their plan I knew it was no good, well I was young so it didn't matter
03 And when they told me to run I ran as fast as the wind, I wasn't fast enough however

      A5    G5        A5    G5        A5    G5         D/F# Fmaj7/11

Eb |--------3---3-3-3-------3---3-3-3-------3---3-3-3-------0---0-0---------------
Bb |--------3---3-3-3-------3---3-3-3-------3---3-3-3---3---0---0-0-0-------------
Gb |--0h2-0-0---0-0-0-0h2-0-0---0-0-0-0h2-0-0---0-0-0---2---2---2-2-2-------------
Db |--0h2-0-0---0-0-0-0h2-0-0---0-0-0-0h2-0-0---0-0-0---0---3---3-3-3-------------
Ab |--0-0-0-----------0-0-0-----------0-0-0-----------------3---3-3-3-------------
Eb |--------3---3-3-3-------3---3-3-3-------3---3-3-3---2---1---1-1-1-------------
      *       *       *       *       *       *       *       *

04 And when I laughed and I fell, I was still feeling good I felt alive, that's all that mattered

      D               G5              Bm7             G5

Eb |--2---2-2-2-2-2-2-3---3-3---3-3-3-----------------3---3-3---3-3-3-------------
Bb |--3---3-3-3-3-3-3-3---3-3---3-3-3-3---3-3-3-3-3-3-3---3-3---3-3-3-------------
Gb |--2---2-2-2-2-2-2-0---0-0---0-0-0-2---2-2-2-2-2-2-0---0-0---0-0-0-------------
Db |--0---0-0-0-0-0-0-0---0-0---0-0-0-0---0-0-0-0-0-0-0---0-0---0-0-0-------------
Ab |----------------------------------2---2-2-2-2-2-2-----------------------------
Eb |------------------3---3-3---3-3-3-----------------3---3-3---3-3-3-------------
      *       *       *       *       *       *       *       *

06 yeah I was in for the fun. I put my soul into it, I'm in for the fun, I'll put my soul into it

      D               G5              Bm7             G5

Eb |--2---2-2-2-2-2-2-3---3-3---3-3-3-----------------3---3-3---3-3-3-------------
Bb |--3---3-3-3-3-3-3-3---3-3---3-3-3-3---3-3-3-3-3-3-3---3-3---3-3-3-------------
Gb |--2---2-2-2-2-2-2-0---0-0---0-0-0-2---2-2-2-2-2-2-0---0-0---0-0-0-------------
Db |--0---0-0-0-0-0-0-0---0-0---0-0-0-0---0-0-0-0-0-0-0---0-0---0-0-0-------------
Ab |----------------------------------2---2-2-2-2-2-2-----------------------------
Eb |------------------3---3-3---3-3-3-----------------3---3-3---3-3-3-------------
      *       *       *       *       *       *       *       *

07 I'm in for the fun when no one else would do it

 [chorus]

      A     G5        D               A     G5        D

Eb |--0-0-0-3---3-3-3-2---2-2---3---0-0-0-0-3---3-3-3-2---2-2---3---0-------------
Bb |--2-2-2-3---3-3-3-3---3-3---3---3-2-2-2-3---3-3-3-3---3-3---3---3-------------
Gb |--2-2-2-0---0-0-0-2---2-2---2---2-2-2-2-0---0-0-0-2---2-2---2---2-------------
Db |--2-2-2-0---0-0-0-0---0-0---0---0-2-2-2-0---0-0-0-0---0-0---0---0-------------
Ab |--0-0-0---------------------------0-0-0---------------------------------------
Eb |--------3---3-3-3-----------------------3---3-3-3-----------------------------
      *       *       *       *       *       *       *       *

08 And I'll do it again, I got no (....) I'll do it again,  I'll never win

      A     G5        D               A     G5        D

Eb |--0-0-0-3---3-3-3-2---2-2---3---0-0-0-0-3---3-3-3-2---2-2---3---0-------------
Bb |--2-2-2-3---3-3-3-3---3-3---3---3-2-2-2-3---3-3-3-3---3-3---3---3-------------
Gb |--2-2-2-0---0-0-0-2---2-2---2---2-2-2-2-0---0-0-0-2---2-2---2---2-------------
Db |--2-2-2-0---0-0-0-0---0-0---0---0-2-2-2-0---0-0-0-0---0-0---0---0-------------
Ab |--0-0-0---------------------------0-0-0---------------------------------------
Eb |--------3---3-3-3-----------------------3---3-3-3-----------------------------
      *       *       *       *       *       *       *       *

09 And I'll do it again, I got no (....) I'll do it again



 [outro]

      B5    Bsus4     B5    Bsus4     B4    Bsus4     B5    Bsus4

Eb |--------0---0-0-0-------0---0-0-0-------0---0-0-0-------0---0-0-0-------------
Bb |--------5---5-5-5-------5---5-5-5-------5---5-5-5-------5---5-5-5-------------
Gb |----4-4-4---4-4-4---4-4-4---4-4-4---4-4-4---4-4-4---4-4-4---4-4-4-------------
Db |----4-4-4---4-4-4---4-4-4---4-4-4---4-4-4---4-4-4---4-4-4---4-4-4-------------
Ab |--0h2-2-----------0h2-2-----------0h2-2-----------0h2-2-----------------------
Eb |------------------------------------------------------------------------------
      *       *       *       *       *       *       *       *
      

Добавлено: 11.01.2014
Другие материалы по этой песне:
  • Аккорды и текст

Страница создана 17.03.2012
http://primanota.ru/racoon/couple-of-guys-chords.htm
Привет, Гость.
Предлагаем пройти революционный курс по гитаре.
Подарок от PrimaNota.Ru, забирай!