PrimaNota.ru - самый крупный в мире бесплатный архив песенных текстов, аккордов, табулатур и нот


Racoon - Biggest Fan - текст песни, таба, видео

Регистрация Запомнить меня
Войти через:  Facebook Google Twitter Vk Yandex Mail.ru

Racoon - Biggest Fan - текст песни, таба, видео

Печатать
Просмотров: 155


Song       : Biggest Fan
Artist     : Racoon
Album      : Here We Go, Stereo
By         : Jurgen Krombeen (valkenaer@hotmail.com)
URL        : http://people.zeelandnet.nl/snarfje

Last update: October 21st, 2003


Tune guitar down 1 step

 A  xx543x  A5(II) x02255  D     xx077x
 G  xx765x  Am7    x0758x  Dsus4 xx078x
 A5 x022xx  G5     xx578X


 [intro]

D |---5p3---5p3---5p3---5p3---5p3-----0-------0-------0-------0---0---0----------
A |-------5-----5-----5-----5-----5---0h5-----0h5-----0h5-----3---2---1----------
F |------------------------------------------------------------------------------
C |------------------------------------------------------------------------------
G |------------------------------------------------------------------------------
D |------------------------------------------------------------------------------
      *       *       *       *       *       *       *       *

 [verse (dist.)]

D |------------------------------------------------------------------------------
A |-----3-------------------------------5----------------------------------------
F |----4-------------------------------6-----------------------------------------
C |---5-------------------------------7------------------------------------------
G |------------------------------------------------------------------------------
D |------------------------------------------------------------------------------
      *       *       *       *       *       *       *       *

01 I never meant to stalk, to haunt you or to follow


D |------------------------------------------------------------------------------
A |-----3------------------------------------------------------------------------
F |----4------------------------------2------------------------------------------
C |---5-------------------------------2------------------------------------------
G |-----------------------------------0------------------------------------------
D |------------------------------------------------------------------------------
      *       *       *       *       *       *       *       *

02 But without you my life would certainly go dull (dumb dumb doll)


D |------------------------------------------------------------------------------
A |-----3-------------------------------5----------------------------------------
F |----4-------------------------------6-----------------------------------------
C |---5-------------------------------7------------------------------------------
G |------------------------------------------------------------------------------
D |------------------------------------------------------------------------------
      *       *       *       *       *       *       *       *

03 Got all your posters man, I hung 'em in my hallway


D |------------------------------------------5-----------5-----------5-----------
A |-----3-----------------------------------------5------------5----------5------
F |----4------------------------------2------------------------------------------
C |---5-------------------------------2------------------------------------------
G |-----------------------------------0------------------------------------------
D |------------------------------------------------------------------------------
      *       *       *       *       *       *       *       *

04 So wherever you may be you're always here with me


 [pre-chorus riff]

      Am7                                 G5        D         (Dsus4)

D |-------0---------------0-------0----------------------------------------------
A |-------8---------------8-------8-------8---8-8-8-7-------7h8----8p7-----------
F |---5---5-------5-------5-------5-------7---7-7-7-7-------7-7----7-7-----------
C |---7---7-------7-------7-------7-------5---5-5-5-0-------0-0----0-0-----------
G |---0---0-------0-------0-------0----------------------------------------------
D |------------------------------------------------------------------------------
      *       *       *       *       *       *       *       *

05 I've got you underneath my skin
06 I don't know where I should begin

 [chorus]

      G5                              Cadd9

D |---3---3---3---3---3---3---3-3-3---3-----3-3---3---3---3---3-3-3--------------
A |---3---3---3---3---3---3---3-3-3---3-----3-3---3---3---3---3-3-3--------------
F |---0---0---0---0---0---0---0-0-0---0-----0-0---0---0---0---0-0-0--------------
C |---0---0---0---0---0---0---0-0-0---2-----2-2---2---2---2---2-2-2--------------
G |-----------------------------------3-----3-3---3---3---3---3-3-3--------------
D |---3---3---3---3---3---3---3-3-3----------------------------------------------

      *       *       *       *       *       *       *       *

07 I'll always be your biggest fan but you don't know who I am
09 I'll always be your biggest fan but you don't know who I am



D |---3---3---3---3---3---3---3-3-3---3-----3-3---3---3---3---3-3-3-3------------
A |---3---3---3---3---3---3---3-3-3---3-----3-3---3---3---3---3-3-3-3------------
F |---2---2---2---2---2---2---2-2-2---0-----0-0---0---0---0---0-0-0-0------------
C |---0---0---0---0---0---0---0-0-0---2-----2-2---2---2---2---2-2-2-2------------
G |-----------------------------------3-----3-3---3---3---3---3-3-3-3------------
D |------------------------------------------------------------------------------
      *       *       *       *       *       *       *       *

08 One day you'll know me man one day you'll understand
10 One day you'll know me man



D |------------------------------------------------------------------------------
A |-----15------------------------------17---------------------------------------
F |----16------------------------------18----------------------------------------
C |---17------------------------------19-----------------------------------------
G |------------------------------------------------------------------------------
D |------------------------------------------------------------------------------
      *       *       *       *       *       *       *       *

11 I got seven setlists, I even got two t-shirts


D |------------------------------------------------------------------------------
A |-----15-----------------------------------------------------------------------
F |----16-----------------------------2------------------------------------------
C |---17------------------------------2------------------------------------------
G |-----------------------------------0------------------------------------------
D |------------------------------------------------------------------------------
      *       *       *       *       *       *       *       *

12 I'm looking prettier than yesterday (yesterday)


D |------------------------------------------------------------------------------
A |-----3-------------------------------5----------------------------------------
F |----4-------------------------------6-----------------------------------------
C |---5-------------------------------7------------------------------------------
G |------------------------------------------------------------------------------
D |------------------------------------------------------------------------------
      *       *       *       *       *       *       *       *

13 One t-shirt's made by hand, the other one is paid for

D |------------------------------------------5-----------5-----------5-----------
A |-----3-----------------------------------------5------------5----------5------
F |----4------------------------------2------------------------------------------
C |---5-------------------------------2------------------------------------------
G |-----------------------------------0------------------------------------------
D |------------------------------------------------------------------------------
      *       *       *       *       *       *       *       *

14 And man I promise I won't download anything

 [pre-chorus riff]

      Am7                                 G5        D         (Dsus4)

D |-------0---------------0-------0----------------------------------------------
A |-------8---------------8-------8-------8---8-8-8-7-------7h8----8p7-----------
F |---5---5-------5-------5-------5-------7---7-7-7-7-------7-7----7-7-----------
C |---7---7-------7-------7-------7-------5---5-5-5-0-------0-0----0-0-----------
G |---0---0-------0-------0-------0----------------------------------------------
D |------------------------------------------------------------------------------
      *       *       *       *       *       *       *       *

15 I've got you underneath my skin
16 I don't know where I should begin

 [repeat chorus]



 [bridge]


D |------------------------------------------------------------------------------
A |--/8----8-----------8-----/10-/12-5----5----------5------3--/5--------------
F |-------------0-------------------------------0--------------------------------
C |------------------------------------------------------------------------------
G |--/10--------------10-----/12-/14-7---------------7------5--/7--------------
D |------------------------------------------------------------------------------
      *       *       *       *       *       *       *       *

D |------------------------------------------10------------10--------------------
A |--3----3---------/8------/10-/12-8-------------8--------------8-------------
F |-------------0----------------------------------------------------------------
C |------------------------------------------------------------------------------
G |--5--------------/10-----/12-/14-10-----------------------------------------
D |------------------------------------------------------------------------------
      *       *       *       *       *       *       *       *

D |------------------------------------------------------------------------------
A |--/8----8-----------8-----/10-/12-5----5----------5------3--/5--------------
F |-------------0-------------------------------0--------------------------------
C |------------------------------------------------------------------------------
G |--/10--------------10-----/12-/14-7---------------7------5--/7--------------
D |------------------------------------------------------------------------------
      *       *       *       *       *       *       *       *

D |------------------------------------------15------------15--------------------
A |--3----3---------/8------/10-/12-13-----------13-------------13-------------
F |-------------0----------------------------------------------------------------
C |------------------------------------------------------------------------------
G |--5--------------/10-----/12-/14-15-----------------------------------------
D |------------------------------------------------------------------------------
      *       *       *       *       *       *       *       *

 [repeat chorus]




Добавлено: 15.10.2013
Другие материалы по этой песне:
  • Аккорды и текст

Страница создана 06.03.2012
http://primanota.ru/racoon/biggest-fan-chords.htm
Привет, Гость.
Предлагаем пройти революционный курс по гитаре.
Подарок от PrimaNota.Ru, забирай!