PrimaNota.ru - самый крупный в мире бесплатный архив песенных текстов, аккордов, табулатур и нот


Racoon - Autumn Tunes - текст песни, таба, видео

Регистрация Запомнить меня
Войти через:  Facebook Google Twitter Vk Yandex Mail.ru

Racoon - Autumn Tunes - текст песни, таба, видео

Печатать
Просмотров: 182
Уроки эстрадного вокала в Санкт-Петербурге


Song       : Autumn Tunes
Artist     : Racoon
Album      : Here We Go, Stereo
By         : Jurgen Krombeen (valkenaer@hotmail.com)
URL        : http://people.zeelandnet.nl/snarfje

Last update: October 11th, 2003


Tune guitar down 1/2 step

 G#m        4xx44x  Bsus4 x24400  Em7   075780
 G#m/F#     2xx44x  C#m7  x46600  G5    x5078x
 E5         0xx45x  Aadd9 577600  C     x(10)(10)980
 Emaj7      0xx44x  Asus2 x02200  Cmaj7 x(10)(10)970


 [intro and verse riff]

      G#m     G#m/F#      E5 Emaj7 E6

Eb |----------------------------------------------------------------2--------------
Bb |-----4-------4--------5-54-4--2-----4--------4---------4---5------------------
Gb |-----4-------4--------4-4-4-4--4-----4--------4---------4---4---4--------------
Db |-------------------------------------------------------------------------------
Ab |-------------------------------------------------------------------------------
Eb |--4-----4-2-----2-0----0----------4-----4-2-------2-0-----0---0----------------
      *       *       *       *       *       *       *       *

01 The summer turned its back too soon
02 So now we're playing autumn tunes again
03 As we're waiting in this dressingroom
04 The backstage door is closed but it will open soon

05 All people grey and dusty minds
06 I feel like running down the hill just to settle there
07 But running's just a waste of time
08 You see the more we run the more we seem to get nowhere

13 It's so funny how it turned out she said
14 You see the winter always makes me grab for cigarettes
15 And both my shoes are full of led
16 From now on things can only jolly up I guess

 [chorus riff]

      Bsus4 C#maj7    Aadd9           Bsus4   C#maj7      Asus2

Eb |----0-0-0-0---0-0-0---0-0-0-0-0-0---0---0-0---0-0-------------0-0--------------
Bb |--0-0-0-0-0---0-0-0---0-0-0-0-0-0-0-0-0-0-0-0-0-0-----0-0---0-0-0--------------
Gb |--4-4-4-4/6---6-6-6---6-6-6-6-6-6-4-4-4-4/6-6-6-6-2---2-2---2-2-2--------------
Db |--4-4-4-4/6---6-6-7---7-7-7-7-7-7-4-4-4-4/6-6-6-6-2---2-2---2-2-2--------------
Ab |--2-----2/4---4-4-7---7-7-7-7-7-7-2-----2/4-4-4-4-0---0-0---0-0-0--------------
Eb |------------------5---5-5-5-5-5-5----------------------------------------------
      *       *       *       *       *       *       *       *

09 Today I had a strange feeling
10 It started out so well you say
11 Today I had a strange feeling
12 It started off so well but it went slowly down the drain

 [bridge]

      Em7             G5              C               Cmaj7

Eb |----0-0-0-0-0-0---------------------------------------------------------------
Bb |----8-8-8-8-8-8---8---8-8-8-8---8-8-8---8-8-8-8-7-7-8-7-8-7-7-----------------
Gb |--7-7-7-7-7-7-7-7-7-7-7-7-7-7-7-7-9-9-9-9-9-9-9-9-9-9-9-9-9-9-----------------
Db |--5-5-5-5-5-5-5-5-0-0-0-0-0-0-0-0-1010101010--1010101010101010----------------
Ab |--7-7-7-7-7-7-7-7-5-5-5-5-5-5-5-5---10101010--10--10101010--10----------------
Eb |--0-0-0---0-0-----------------------------------------------------------------
      *       *       *       *       *       *       *       *

17 Maybe it's true; bullshit stories people tell about me
18 They're all true. Well today's over, tomorrow's coming soon.



Добавлено: 18.11.2013
Другие материалы по этой песне:
  • Аккорды и текст

Страница создана 09.04.2012
http://primanota.ru/racoon/autumn-tunes-chords.htm
Привет, Гость.
Предлагаем пройти революционный курс по гитаре.
Подарок от PrimaNota.Ru, забирай!