PrimaNota.ru - самый крупный в мире бесплатный архив песенных текстов, аккордов, табулатур и нот


Racing Cars - Weekend Rendezvous - таба, видео

Регистрация Запомнить меня
Войти через:  Facebook Google Twitter Vk Yandex Mail.ru

Racing Cars - Weekend Rendezvous - таба, видео

Печатать
Просмотров: 198
solo


--------------------------|
--------------------------|
---------9s--12--9--------|
------7-------------------|
--/9----------------------|
--------------------------|


          NH

-------<>12-------------|
------------------------|
------------------------|
------------------------|
------------------------|
------------------------|


--10g13s--10------10-------------------------|
--------------11-------11--8--11---8------8--|
--------------------------------------10-----|
---------------------------------------------|
---------------------------------------------|
---------------------------------------------|




--------------------------------------|
--6-----6-----------------------------|
-----7------7-----7---3-----3---------|
---------------8---------5------5-----|
-----------------------------------6--|
--------------------------------------|


-----------------------------------|
-----------------------------------|
-----------------7--9--10--12--13--|
--5-----------7--------------------|
-------3-/5------------------------|
-----------------------------------|


----------15--12---------------------|
------13----------13-----------------|
--14------------------14--12--9h-10h-|
-------------------------------------|
-------------------------------------|
-------------------------------------|


------------------------------|
------------------------------|
--9-7----------------------7--|
------7-----------------8-----|
------------------8/10--------|
------------------------------|


--------------------------------|
------------10------13----------|
-----10--7------10--------------|
--8---------------------12--13--|
--------------------------------|
--------------------------------|


--------------------------|
--15----15----15----15----|
--------------------------|
--------------------------|
--------------------------|
--------------------------|


--------12-12--12--12----12------|
--14-15--------------------------|
---------------------------------|
---------------------------------|
---------------------------------|
---------------------------------|


--17br----16------------------|
--------------17--------------|
------------------16----L~----|
------------------------------|
------------------------------|
------------------------------|


---------16--14--12------------------------|
---------------------14--12h-14p-12--------|
--14s-16-----------------------------14-13-|
-------------------------------------------|
-------------------------------------------|
-------------------------------------------|


-------------12-------------|
---------10------12---------|
--11b-----------------------|
----------------------------|
----------------------------|
----------------------------|


--------------------------9------|
-----------------------------10--|
--6h-7p-6---6h--7--9--11---------|
--x-------9----------------------|
--x------------------------------|
---------------------------------|


--12--9----------7--4--------|
---------10------------5-----|
-------------11-----------6--|
-----------------------------|
-----------------------------|
-----------------------------|


--------------------------|
-----------3-------3--3b--|
--------0-----4-----------|
-----2--------------------|
--------------------------|
--------------------------|
Добавлено: 23.06.2013
Вам также может быть интересно:
Другие материалы по этой песне:
  • Аккорды и текст

Страница создана 23.06.2013
http://primanota.ru/racing-cars/weekend-rendezvous-chords.htm
Привет, Гость.
Предлагаем пройти революционный курс по гитаре.
Подарок от PrimaNota.Ru, забирай!