PrimaNota.ru - самый крупный в мире бесплатный архив песенных текстов, аккордов, табулатур и нот


Rachels - Water From The Same Source - таба, видео

Регистрация Запомнить меня
Войти через:  Facebook Google Twitter Vk Yandex Mail.ru

Rachels - Water From The Same Source - таба, видео

Печатать
Просмотров: 266
Уроки эстрадного вокала в Санкт-Петербурге
This is a tab for guitar cover made by Ghim. Also, tab is made by this guy - thedon2072's channel 
(it is his profile on youtube). Originally posted here - 
http://slowriot-bbf3.blogspot.ru/2011/12/water-from-same-source-ghim-cover.html

00-00-0-0 = N
00-00-0 = n
00-00---- = m
P = pause for time N
/ = Slide up
\ = Slide down
 
g --P----P-----00-00-0-0----N-------n-------N----------------|
D -----------------------------------------------------------|
G -----------------------------------------------------------|
C -----------------------------------------------------------|
F -----------------------------------------------------------|
E -1---1------1----------/3-----/8------\0-------------------|
 
 
g ----N---------N-------n---------m---------------|
D ------------------------------------------------|
G ------------------------------------------------|
C ------------------------------------------------|
F ------------------------------------------------|
E -1------/3--------/8-------\0-------------------|
 
 
g ---n-------n------------------N-----------------|
D --------------------0---------------------------|
G -2---/5-4-----0-5-----5-4-0---------------------|
C ----------------0-0-----------------------------|
F -0----------------------------------------------|
E --------3-----------------0---------------------|
 
 
g ---n-------n-------m---------N------------------|
D ----------------2----2-3-/5-----0---2-----------|
G -2---/5-4-----0-------------------------5---5---|
C ----------------0-------------------------------|
F -0------------------------------0-0---0---0-----|
E --------3-----------------0---------------------|
 
 
g --------------------m---------------------------|
D -0---2------------2-----------------------------|
G ---------0---0----------------------------------|
C ------------------0-----------------------------|
F ------------------------------------------------|
E -3-3---3---3------------------------------------|
 
 
g ----------N------------------|
D --2-3-/5-----0---2-----------|
G ---------------------5---5---|
C -----------------------------|
F -------------0-0---0---0-----|
E -------0---------------------|
 
 
g -------------------m--------N---n-------n-------|
D -0---2-----------2---2-3-/5---5---/2-/5---0-----|
G ---------0---0----------------------------------|
C -----------------0------------------------------|
F ------------------------------0-----------------|
E -3-3---3---3--------------------------3---------|
 
 
g -2---0-------------N----n------n-----------------m-|
D ---------2------------------------------0----------|
G --------------5-4-----2---/5-4----0-5-----5-4--0---|
C -0-0---0---0------------------------0-0------------|
F ----------------------0----------------------------|
E ----------------0------------3-----------------0---|
 
 
g -4-2---4p2----4-2---4p2-----44-p2----4-p2-------|
D -----2------2-----0-------0-22-----2-2----2-----|
G ----------------------------00-------0----------|
C ----0-----0-----------------00----0--0---0------|
F -00--0-0----0-----------------------------------|
E --------------33-33-3---3-3---------------------|
 
 
g -0-----4p2----|
D -5---------2--|
G -0------------|
C -4------------|
F -0------------|
E -0--0000--00--|
 
 
g -4-2---4p2----4-2---4p2-----44-p2----4-p2-------|
D -----2------2-----0-------0-22-----2-2----2-----|
G ----------------------------00-------0----------|
C ----0-----0-----------------00----0--0---0------|
F -00--0-0----0-----------------------------------|
E --------------33-33-3---3-3---------------------|
 
 
g -0-----4p2----|
D -5---------2--|
G -0------------|
C -4------------|
F -0------------|
E -0--0000--00--|
 
 
g -42-20-20-----42-20-20-0------------------------------------|
D ---2--0--0--0---2--0--0-0--20-0--20------0------------0-----|
G ----------54-----------------5-5---545-4--5454-0-40245------|
C ---------------------------0-----00-------------------------|
F -0-----00---------------------------------------------------|
E ---------------3-----33------------------0-------0-0-0------|
 
 
g -42-20-20-----42-20-20-0------------------------------------|
D ---2--0--0--0---2--0--0-0--20-0--20------0------------0-----|
G ----------54-----------------5-5---545-4--5454-0-40245------|
C ---------------------------0-----00-------------------------|
F -0-----00---------------------------------------------------|
E ---------------3-----33------------------0-------0-0-0------|
 
 
g -42-20-20-----42-20-20-0------------------------------------|
D ---2--0--0--0---2--0--0-0--20-0--20------0------------0-----|
G ----------54-----------------5-5---545-4--5454-0-40245------|
C ---------------------------0-----00-------------------------|
F -0-----00---------------------------------------------------|
E ---------------3-----33------------------0-------0-0-0------|
 
 
g -42-20-20-----42-20-20-0------------------------------------|
D ---2--0--0--0---2--0--0-0--20-0--20------0------------0-----|
G ----------54-----------------5-5---545-4--5454-0-40245------|
C ---------------------------0-----00-------------------------|
F -0-----00---------------------------------------------------|
E ---------------3-----33------------------0-------0-0-0------|
 
 
g -4-2-------0-------0----4-2-----0-------4p2-------|
D -----2-------2-----0--0-2---2-3-5-----------2-----|
G -------------------0----0-------0-----------------|
C ----0--------------2----00-0----0-----------------|
F -00--0-0-----2-22 -2-2----------4-----------------|
E --------------------------------0---0000---00-----|
 
 
g -4-2-------0-------0----4-2-----0-------4p2-------|
D -----2-------2-----0--0-2---2-3-5-----------2-----|
G -------------------0----0-------0-----------------|
C ----0--------------2----00-0----0-----------------|
F -00--0-0-----2-22--2-2----------4-----------------|
E --------------------------------0---0000---00-----|
 
 
g --------------------------------------------------------|
D -----------------0----0------------------0----0---------|
G ---2-5--2-5--0-4---04--0---0-5--0-5--0-4---04--0--------|
C -5-----5---5-------------0-----0---4--------------------|
F -0000000-----------------7777777------------------------|
E -------------3333333-----------------0000000------------|
 
 
g ------------------------------------------0-00-----|
D -----------------0----0------------------05-55-----|
G ---2-5--2-5--0-4---04--0---0-5--0-5--0-4--0-00-----|
C -5-----5---5-------------0-----0---4------0-00-----|
F -0000000-----------------7777777----------4-44-----|
E -------------3333333-----------------000000-00-----|
 
 
g -12-----10---0------0---8--10*--12--------------|
D -10-----10---2------0---10-10---10--------------|
G -12-----12---0------0---8--8----12--------------|
C -0------0----0------0---0--0----x**-------------|
F -0--to--0----2--to--2---x--x----11--------------|
E ------------------------8--8----0---------------|
 
 
g -12-----10---0------0---8--10*--12--------------|
D -10-----10---2------0---10-10---10--------------|
G -12-----12---0------0---8--8----12--------------|
C -0------0----0------0---0--0----x**-------------|
F -0--to--0----2--to--2---x--x----11--------------|
E ------------------------8--8----0---------------|
 
*One stroke only
**Not sure if this is meant to be 0
 
 
g -0---0---2--0---0--0---0--00-0---0-0-0-0-------------|
D -5---0---2--2---0--0---0--00-0---0-0-0-0--------0----|
G -5---0---0--0---5--7---2-/54-0---5-7-5-7------0------|
C -0---0---0--0---0--7---0--00-0---0-0-0-7-------------|
F -0---2----------7--7---0--00-0---7-7-7-7-------------|
E ---------------------------3-3--------------0--------|
 
 
 
g -4-2---4p2----4-2---4p2-----44-p2----4-p2-------|
D -----2------2-----0-------0-22-----2-2----2-----|
G ----------------------------00-------0----------|
C ----0-----0-----------------00----0--0---0------|
F -00--0-0----0-----------------------------------|
E --------------33-33-3---3-3---------------------|
 
 
 
g -0-----4p2--------------------------------------|
D -5---------2------------------------------------|
G -0----------------------------------------------|
C -4----------------------------------------------|
F -0----------------------------------------------|
E -0-0000--00-------------------------------------|
 
 
 
 
 
 
g -4-2---4p2----4-2---4p2-----44-p2----4-p2-------|
D -----2------2-----0-------0-22-----2-2----2-----|
G ----------------------------00-------0----------|
C ----0-----0-----------------00----0--0---0------|
F -00--0-0----0-----------------------------------|
E --------------33-33-3---3-3---------------------|
 
 
g -4--2---4p2-----------------------------------|
D ------2------0--------------------------------|
G ------------------FIN-------------------------|
C ----------------------------------------------|
F ----------------------------------------------|
E -00--00-0--0-0--------------------------------|
Добавлено: 02.07.2015
Другие материалы по этой песне:
  • Аккорды и текст

Страница создана 02.07.2015
http://primanota.ru/rachels/water-from-same-source-chords.htm
Привет, Гость.
Предлагаем пройти революционный курс по гитаре.
Подарок от PrimaNota.Ru, забирай!