PrimaNota.ru - самый крупный в мире бесплатный архив песенных текстов, аккордов, табулатур и нот


Rachel Yamagata - Nothing Gets By Here - таба, видео

Регистрация Запомнить меня
Войти через:  Facebook Google Twitter Vk Yandex Mail.ru

Rachel Yamagata - Nothing Gets By Here - таба, видео

Печатать
Просмотров: 57
#### Artist: Rachel Yamagata              ####
#### Song: Nothing gets by here           ####
#### Album: Heavyweight EP                ####
#### spotify:track:6rQxpkDbthSSisIXFNo5wv ####
#### ----------------------------         ####
#### Tab: Daniel Figueroa                 ####
#### ----------------------------         ####

I like to play this song with upper chords for the verse. And in the chorus I can use the bar chords.

Intro:

e|-----------------------------|-------------------------|--------------|
B|--10--8--10--8--10--8--10----|-------------------------|--------------|
G|-----------------------------|--9--7--9--7--9--7--9----|--7--------9--|
D|-----------------------------|-------------------------|--------------|
A|-----------------------------|-------------------------|--------------|
E|-----------------------------|-------------------------|--------------|   x2

       Verse: F - Am - Bb - C

       F:  1-3-3-2-1-1-|
       Am: X-0-2-2-1-0-|
       Bb: X-1-3-3-3-1-|
       C:  X-3-2-0-1-0-|

Hey there, it's been a while
You came out under the covers
With your smile so new
Yet it feels like old
So good to see you
Got a little sidetracked with hope
You'd gotten so used to
For what it's worth baby
Seeing you here
Is like seeing joy

       Chorus: F - Am - Bb - C

       F:  X-8-10-10-10-8-|
       Am: 5-7-7-5-5-5----|
       Bb: 6-8-8-7-6-6----|
       C:  8-10-10-9-8-8--|

         (Also the tab for the picking is as follows)


E|------------------------------------5-------------------6--------------------8--------|
B|-------------10------------------------5-------------------6--------------------8-----|
G|---------10------10--------------5--------5----------7--------7-----------9--------9--|
D|-----10--------------10-------7-------------------8-------------------10--------------|
A|--8-----------------------------------------------------------------------------------|
E|---------------------------5-------------------6-------------------8------------------|

But nothing gets by here
Yeah, nothing gets by here

Break the rules
Am I a shoulder to cry on
Cause there was a time you left me with nothing to rely on
Save a place cause there's no more reason why
You gotta be a fool if you're thinking about saving face
Cause it's over, it's over, it's over this time

Nothing gets by here
Cause nothing gets by here


       Bridge: Am - Bb - F - C

         (In the bridge you can repeat the picking as in done in the chorus part, or 
just play the Chords)

You had my heart
Such a delicate thing to break
You have a brand new life
What a life for your mistake


        Chorus: F - Am - Bb - C

         (During this section a second guitar or a loop can play the intro notes)

Cause nothing gets by here
Yeah nothing gets by here
Nothing gets by here
Nothing gets by here
Nothing gets by, by here, by here
Nothing gets by, by here
Добавлено: 29.12.2015
Другие материалы по этой песне:
  • Аккорды и текст

Страница создана 29.12.2015
http://primanota.ru/rachel-yamagata/nothing-gets-by-here-chords.htm
Привет, Гость.
Предлагаем пройти революционный курс по гитаре.
Подарок от PrimaNota.Ru, забирай!