PrimaNota.ru - самый крупный в мире бесплатный архив песенных текстов, аккордов, табулатур и нот


Rachel Stevens - Sweet Dreams My Lax - аккорды и текст, видео

Регистрация Запомнить меня
Войти через:  Facebook Google Twitter Vk Yandex Mail.ru

Rachel Stevens - Sweet Dreams My Lax - аккорды и текст, видео

Печатать
Просмотров: 70
Уроки эстрадного вокала в Санкт-Петербурге
Sweet Dreams My Lax
Rachel Stevens
Rachel Stevens - LAX


A  - 577655
Dm - x57765
Bb - 688766


Only Three cords really used in this song the problem is hitting
them at the write time, basically the progression is:

A A Dm Dm Dm Bb A A  - again and again

Verse

A A  Dm   Dm
Hey, hang your....

Dm                    Bb      A     A
Cause there's nothing left to prove now

Same for the chorus, but to play it well listen to the song. On
the off beat there are 2 strong downward strokes of each cord
with a beat of a couple of mutted  xxxxxx  cords in between




If I....                               in your

e--5-----5--x--x-----5-----5--x--x-----5-----5--x--x----
---5-----5--x--x-----5-----5--x--x-----6-----6--x--x----
---6-----6--x--x-----6-----6--x--x-----7-----7--x--x----
---7-----7--x--x-----7-----7--x--x-----7-----7--x--x----
---7-----7--x--x-----7-----7--x--x-----5-----5--x--x----
E--5-----5--x--x-----5-----5--x--x-----x-----x--x--x----


                     I'd wor.........ry    about... 
               
e--5-----5--x--x-----5-----5--x--x-----6-----6--x--x----
---6-----6--x--x-----6-----6--x--x-----6-----6--x--x----
---7-----7--x--x-----7-----7--x--x-----7-----7--x--x----
---7-----7--x--x-----7-----7--x--x-----8-----8--x--x----
---5-----5--x--x-----5-----5--x--x-----8-----8--x--x----
E--x-----x--x--x-----x-----x--x--x-----6-----6--x--x----



..the effects

e--5-----5--x--x-----5-----5--
---5-----5--x--x-----5-----5--
---6-----6--x--x-----6-----6--
---7-----7--x--x-----7-----7--
---7-----7--x--x-----7-----7--
E--5-----5--x--x-----5-----5--


And so on. For the "what plant are you from" pre-chorus I just 
strum along normally. The bridge "Does it make you feel" is 
one strike of each of the cords, with the progression mixed
up, so you can work that out for yourselves. 

Finally the solo sounds best if you just finger plick or just 
go really fast plucking the high strings of each cord in the 
same cord progession, hit the E (6th) string then pluck the top 
four all mixed up and really fast. Repeat acCORDingly for each 
beat. Get it.. accordingly... cord ... brilliant. anywho enjoy.

Jack McCarthy


________________________________________________________________________
     
Добавлено: 15.06.2013
Другие материалы по этой песне:
  • Аккорды и текст

Страница создана 15.06.2013
http://primanota.ru/rachel-stevens/sweet-dreams-my-lax-chords.htm
Привет, Гость.
Предлагаем пройти революционный курс по гитаре.
Подарок от PrimaNota.Ru, забирай!