PrimaNota.ru - самый крупный в мире бесплатный архив песенных текстов, аккордов, табулатур и нот


Rachel Sermanni - Song For A Fox - аккорды и текст, видео

Регистрация Запомнить меня
Войти через:  Facebook Google Twitter Vk Yandex Mail.ru

Rachel Sermanni - Song For A Fox - аккорды и текст, видео

Печатать
Просмотров: 42
Song For A Fox
Rachel Sermanni
Alright, so this is surely not perfect and not the exact stuff she's playing but it sounds quite good to me :)

Let me know what you're thinkin!
And feel free to correct whatever mistakes you can spot ^^

Fingerpicking is pretty much the same throughout the song, 
check this video https://www.youtube.com/watch?v=PudOwf44GOw for timing and the interludes n stuff 

She uses a capo on 5th I think, but find whatever tickels your fancy.


Intro / Fingerpicking example

Am
e------------------------------------|
B-----1---1---1---1---1---1---1---1--|
G----2---2---2---2---2---2---2---2---|
D------------------------------------|
A--0---0---0---0---0---0---0---0-----|
E------------------------------------|

verse 1

Am                       
Balanced on the railway track
   B                  Am
I felt your eyes upon my back 
    F                   C
the London train moved swiftly
        E            D B Am
Past to cover silent ground

Am
Darting through your shrouded woods
B                              Am   
Ignite your fire and douse my good
F                       C
Your smoky trail a path I'll suit
E             D B Am
I find myself alone



Chorus

      Am          F       D      F     D   C                D              C      G       F
                    I was dancing...                                          ...could not geet away  
e--------------------------2-----------2--------------------2---2---2---2---0-----3-----------|
B----1---1---1----1--------3-----1-----3----1---1---1---1--3---3---3---3----1-----0-0--0---0--|
G---2---2---2-----2--------2-----2-----2---0---0---0---0--------------------0-0---0----1---1--|
D------------------------0-----------0--------------------0---0---0---0-----------------3---3-|
A--0---0---0---2--------------------------3---3---3---3-------------------3-------------------|
E-----------------1------------1-------------------------------------------------3----1---1---|

       D              F
I was dancing on the road
                  D                 C
when lights cast shadows where I strode 
                D                C
though fast my legs could fairly go 
    G       F      Am
I could not get away 


Interlude

     Am               C                G                                 Am
e------------------------------------------------------------------------------------------------------|
B----1---1---1----1---1---1---1----1---0---0---0---0----0---0---0---0---1---1---1---1----1---1---1---1-|
G---2---2---2----0---0---0---0----0---0---0---0---0----0---0---0---0---2---2---2---2----2---2---2---2--|
D-------------------------------0----------------------------------------------------------------------|
A--0---0---0---2---3---3---3------------------------------------------0---0---0---0----0---0---0---0---|
E------------------------------------3---3---3---3----3---3---3---3------------------------------------|


Verse 2

Am
She has eyes as sharp as knives
B                         Am
a face more soft than snow 
F                     C  
I watch her from my oldest life 
E               D B Am
I wonder if she knows 

Am
Sense her like my best kept thought 
B                                 Am
there still with my thickest blood
F                        C
like bees and toast to honey pots
E                     D B Am   C
we stick ourselves to sweet

C F G    C F G   CFG B BAm
I        I       I     I


Chorus

      Am          F       D      F     D   C                D              C      G       F
                    I was dancing...                                          ...we both dance away  
e--------------------------2-----------2--------------------2---2---2---2---0-----3-----------|
B----1---1---1----1--------3-----1-----3----1---1---1---1--3---3---3---3----1-----0-0--0---0--|
G---2---2---2-----2--------2-----2-----2---0---0---0---0--------------------0-0---0----1---1--|
D------------------------0-----------0--------------------0---0---0---0-----------------3---3-|
A--0---0---0---2--------------------------3---3---3---3-------------------3-------------------|
E-----------------1------------1-------------------------------------------------3----1---1---|

I was dancing in the rain 
seep through my clothes and my pale skin 
lights twinkle round me as I spin 
and we both dance away

Am C G
Ah ah ah ah  2x
Добавлено: 10.06.2016
Другие материалы по этой песне:
  • Аккорды и текст

Страница создана 10.06.2016
http://primanota.ru/rachel-sermanni/song-for-a-fox-chords.htm
Привет, Гость.
Предлагаем пройти революционный курс по гитаре.
Подарок от PrimaNota.Ru, забирай!