PrimaNota.ru - самый крупный в мире бесплатный архив песенных текстов, аккордов, табулатур и нот


Rachel Sermanni - Little Prayer - таба, видео

Регистрация Запомнить меня
Войти через:  Facebook Google Twitter Vk Yandex Mail.ru

Rachel Sermanni - Little Prayer - таба, видео

Печатать
Просмотров: 213
Standard tuning and capo on the 8th fret.

It is not that complicated but has a lot of chords change, as Rachel always does. I'll 
try to be as clear as possible.

Picking example on Am:

e|-----------|
B|---1----1--|
G|--2----2---|
D|-----------|
A|-0----0----|
E|-----------|

Always the same. So pick the low note with your thumb, and then the two high notes. I 
will write down the changes. Don't mind the chords names as they are kind of invented, and 
refear to them just to understand where to put your fingers!

Am: X02210
Am/C#: X20210
Cm: X35540
C/G: 320010
D7sus4: 000010 (low E is the low note here)
C/B: X20010
C: X32010
Am7: X02010 (E on the D chord is the low note)
G: 320001 but R. plays it like this: 300000 (play once then go back to Am)
F: 103210 (Am/F shape aplus thumb on the low E string)
Am/F: X03010 (I believe A to be the low note, but it may be F - D string)


Intro: Am (x16)


Am
You're a lost soul,
            Am/C#
I know your kind.
           Cm
For I have followed them,
          Am            C/G  D7sus4
But never quite found myself where,
Am      C     C/B      Am7   (see picking below)
You all go to lose yourselves.
C        Am7       C/B        C
Close my mouth not to ask for help,
       Am7    C/B      G        Am (x4) G (x1) Am (x4) G
But my mother knows my eyes too well.

Am
You're a truth speaker,
                Am/C#
With a heart of gold.
               Cm
Please keep me close,
    Am          C/G   F
For I'd like to learn some.
     Am         C/B      C
With fools gold I try to hide my tongue,
    Am/F     C/G        C
But from you speaks the very sun,

And I pray that you will always hold    on.
    e|--------------------------------|------|
    B|--------1-------1-------1-----1-|----1-|
    G|-----2-------0-------0------0---|--0---|
    D|----------2--------3------------|------|
    A|-3------------------------2-----|3-----|
    E|--------------------------------|------|(x8)

then repeat this last verse if you like, or skip to the outro:

e|---------------------------------------------8-|
B|-----------1-------1-------1-----1--(1)--------|
G|--------2-------0--------0-----0---------------|
D|---0-2----------------3------------------------|
A|-3-----------3----------------2------3---------|
E|-----------------------------------------------|


Picking:

e|------------------|
B|---1---1---1---1--|
G|--2---0---0---0---|
D|-------------2----|
A|-0---2---3--------|
E|------------------|


I hope this is all... and I hope I wrote everything as clear as possible! Many chords 
and variations in this tiny and bautiful song.

Let me know if you need anything!

Marlene
Добавлено: 05.10.2013
Другие материалы по этой песне:
  • Аккорды и текст

Страница создана 05.10.2013
http://primanota.ru/rachel-sermanni/little-prayer-chords.htm
Привет, Гость.
Предлагаем пройти революционный курс по гитаре.
Подарок от PrimaNota.Ru, забирай!