PrimaNota.ru - самый крупный в мире бесплатный архив песенных текстов, аккордов, табулатур и нот


Racetrack - Pretty - таба, видео

Регистрация Запомнить меня
Войти через:  Facebook Google Twitter Vk Yandex Mail.ru

Racetrack - Pretty - таба, видео

Печатать
Просмотров: 135
Tabbed by:Oby
Email:Xtralanked@yahoo.com

Tuning:Standard


e|-----------------------------------------------------------------------|
B|-----------------------------------------------------------------------|
G|-9-9---6-6---4-4---------6-6---4-4-------------------------------------|
D|-9-9---6-6---4-4---7-7---6-6---4-4---7-7-7-7---------------------------|
A|-7-7---4-4---2-2---7-7---4-4---2-2---7-7-7-7---------------------------|
E|-------------------5-5---------------5-5-5-5---------------------------|



And I thought to myself...


e|------------------------|
B|------------------------|
G|--6-6---4-4-------------|
D|--6-6---4-4---7-7-7-7---|
A|--4-4---2-2---7-7-7-7---|
E|--------------5-5-5-5---|


End:

e|-----|
B|-----|
G|--9--|
D|--9--|
A|--7--|
E|-----|


Добавлено: 11.04.2012
Вам также может быть интересно:
Другие материалы по этой песне:
  • Аккорды и текст

Страница создана 11.04.2012
http://primanota.ru/racetrack/pretty-chords.htm
Привет, Гость.
Предлагаем пройти революционный курс по гитаре.
Подарок от PrimaNota.Ru, забирай!