PrimaNota.ru - самый крупный в мире бесплатный архив песенных текстов, аккордов, табулатур и нот


Race Horses - What Am I To Do - аккорды и текст, видео

Регистрация Запомнить меня
Войти через:  Facebook Google Twitter Vk Yandex Mail.ru

Race Horses - What Am I To Do - аккорды и текст, видео

Печатать
Просмотров: 99
What Am I To Do
Race Horses
THE RACE HORSES - "WHAT AM I TO DO?", from their album Furniture



VERSE:
C          Dm                                G
Loneliness, I spend half the weekend feeling the verse.
C           Dm                            G
All my news, stuck in corners out to dry buttered and bruised

BRIDGE:
          Em  Dm                                 G
It's the pity, tracking me into my thoughts this evening
    Em        Dm        G
And it's just like the lust I -



CHORUS:
(G)          Em   Dm           G
What am I to do? What am I to do? }-> [x2]



VERSE:
C      Dm                                  G
Oh you, I preferred your hair when it was darker.
C           Dm                                   G
Silky smooth, and for love so free to fall with nothing to prove.

BRIDGE:
        Em    Dm                                 G
I want lead it, try to go outside and count the feeling,
    Em   Dm      G
Is happening all over -



CHORUS:
(G)          Em   Dm           G
What am I to do? What am I to do? }-> [x2]



INTER.:
   Em...                  Dm        G...
e -------5-7---------5-7------5-7---------5-7---------5-7------5-7--|
B -5/6/5-------5/6/5------5-6-------5/6/5-------5/6/5------5-6------| 
G ------------------------------------------------------------------|
D ------------------------------------------------------------------|
A ------------------------------------------------------------------|
E ------------------------------------------------------------------|

[x4] with rythm guitar
[x2] lead guitar only


CHORUS (with lead guitar as before):
(G)          Em   Dm           G
What am I to do? What am I to do? }-> [x2]


(And final chord Em):
e -----5-7-5-|
B -5-6-------|
G -----------|
D -----------|
A -----------|
E -----------|


-----.-----.------
Добавлено: 07.08.2015
Другие материалы по этой песне:
  • Аккорды и текст

Страница создана 07.08.2015
http://primanota.ru/race-horses/what-am-i-to-do-chords.htm
Привет, Гость.
Предлагаем пройти революционный курс по гитаре.
Подарок от PrimaNota.Ru, забирай!