PrimaNota.ru - самый крупный в мире бесплатный архив песенных текстов, аккордов, табулатур и нот


Raaka-aine - Salaisuus - таба, видео

Регистрация Запомнить меня
Войти через:  Facebook Google Twitter Vk Yandex Mail.ru

Raaka-aine - Salaisuus - таба, видео

Печатать
Просмотров: 29
RAAKA-AINE - Salaisuus

tab by skyturnedred@gmail.com

tuning DGCFAD

. = palm-mute
h = hammer-on
p = pull-off


INTRO x2
|---------------------------|---------------------------|
|---------------------------|---------------------------|
|---------------------------|---------------------------|
|---------------------------|---------------------------|
|-0-0-5-0-3h5-0-7-0-5-3h5p3-|-0-0-5-0-3h5-0-7-0-5-3h7-7-|
|---------------------------|---------------------------|

VERSE 1  (2nd gtr plays a a muted intro riff)
|-----------------------------------------------------------------------------|
|-----------------------------------------------------------------------------|
|-22-------22-------22-------22-------------------------22-------22-------2---|
|-22-------22-------22-------22-------55-------22-------22-------22-------2---|
|-00-------00-------00-------00-------55-------22-------00-------00-------0---|
|-------------------------------------33-------00-----------------------------|


VERSE 2
|------------------|     |-----------------------------------|
|------------------|     |-----------------------------------|
|-22---------------|     |-----------------------------------|
|-22---------------| x4  |-55---------------22---------------|
|-0000000000000000-|     |-55---------------22---------------|
|------------------|     |-3333333333333333-0000000000000000-|
    ..............           ..............   ..............


CHORUS 1
|---------------------------------|-------------------------|
|---------------------------------|-------------------------|
|-5-5-5-5-5-5-5-5-----------------|--------------77-7-7-7-7-|   x2
|-5-5-5-5-5-5-5-5-5-5-5-5-5-5-5-5-|-22--2--2--2--77-7-7-7-7-|
|-3-3-3-3-3-3-3-3-5-5-5-5-5-5-5-5-|-22--2--2--2--55-5-5-5-5-|
|-----------------3-3-3-3-3-3-3-3-|-00--0--0--0-------------|


|---------------------------------|
|---------------------------------|
|-5-5-5-5-5-5-5-5-----------------|
|-5-5-5-5-5-5-5-5-5-5-5-5-5-5-5-5-|
|-3-3-3-3-3-3-3-3-5-5-5-5-5-5-5-5-|
|-----------------3-3-3-3-3-3-3-3-|


repeat INTRO x2
repeat VERSE 1
repeat VERSE 2
repeat CHORUS 1
repeat INTRO x2 (solo)

FILL
|-----------------------------------|
|-----------------------------------|
|-----------------------------------|
|-5--5--5--5--5----2--2--2--2--2222-|
|-5--5--5--5--5----2--2--2--2--2222-|
|-3333333333333333-0000000000000000-|
   .. .. .. .. ...  .. .. .. ..

repeat CHORUS 1

|---------------------------------|
|---------------------------------|
|-5-5-5-5-5-5-5-5-----------------|
|-5-5-5-5-5-5-5-5-5-5-5-5-5-5-5-5-| x2
|-3-3-3-3-3-3-3-3-5-5-5-5-5-5-5-5-|
|-----------------3-3-3-3-3-3-3-3-|


repeat INTRO x2
Добавлено: 24.10.2015
Другие материалы по этой песне:
  • Аккорды и текст

Страница создана 24.10.2015
http://primanota.ru/raaka-aine/salaisuus-chords.htm
Привет, Гость.
Предлагаем пройти революционный курс по гитаре.
Подарок от PrimaNota.Ru, забирай!