PrimaNota.ru - самый крупный в мире бесплатный архив песенных текстов, аккордов, табулатур и нот


Raaka-aine - Odota - таба, видео

Регистрация Запомнить меня
Войти через:  Facebook Google Twitter Vk Yandex Mail.ru

Raaka-aine - Odota - таба, видео

Печатать
Просмотров: 39
RAAKA-AINE - Odota

tab by skyturnedred@gmail.com

tuning DGCFAD

. = palm mute


INTRO x2

|-----------------|-----------------|
|-----------------|-----------------|
|-----------------|-----------------|
|---2---3---3---3-|---2---5---3---2-|
|-0---0---0---0---|-0---0---0---0---|
|-----------------|-----------------|

|-----------------|-----------------|
|-----------------|-----------------|
|-----------------|-----------------|
|-----------------|-----------------|
|---3---5---5---5-|---3---5---5---5-|
|-1---1---1---1---|-1---1---1---1---|



RIFF 1 x2 (wah)

Gtr1
|----------------------|---------------------|
|----------------------|---------------------|
|-9-9-9-10-10-10-10 10-|-9-9-9-11---10---9---|
|----------------------|---------------------|
|-7-7-7--8--8--8--8--8-|-7-7-7--9----8---7---|
|----------------------|---------------------|

|-----------------|-----------------|
|-----------------|-----------------|
|-5-5-5-7-7-7-7-7-|-5-5-5-7-7-7-7-7-|
|-----------------|-----------------|
|-3-3-3-5-5-5-5-5-|-3-3-3-5-5-5-5-5-|
|-----------------|-----------------|

Gtr2
|----------|----------|----------|----------|
|----------|----------|----------|----------|
|----------|----------|----------|----------|
|-22233333-|-22252322-|----------|----------|
|-00000000-|-00000000-|-33355555-|-33355555-|
|----------|----------|-11111111-|-11111111-|



RIFF 2 (verse) x2
|--------------|--------------|--------------|--------------|
|--------------|--------------|--------------|--------------|
|--------------|--------------|--------------|--------------|
|---2-2-2-2-2--|--------------|---5-5-5-5-5--|--------------|
|-000000000000-|---3-3-3-3-3--|-333333333333-|---5-5-5-5-5--|
|--------------|-111111111111-|--------------|-333333333333-|
  .. . . . . .   .. . . . . .   .. . . . . .   .. . . . . .


CHORUS 1 x2
|----------|----------|----------|----------|
|----------|----------|----------|----------|
|-22-------|----------|----------|----------|
|-22-------|-33-------|-55555555-|-55555555-|
|-00-------|-33-------|-55555555-|-55555555-|
|----------|-11-------|-33333333-|-33333333-|

repeat RIFF 1
repeat RIFF 2 (verse)
repeat CHORUS 1
repeat RIFF 1


FILL
|------------------|
|------------------|
|------------------|
|-------------5555-|
|-5555555555555555-|
|-3333333333333333-|
  ............


CHORUS 2 x2
|----------|----------|----------|----------|
|----------|----------|----------|----------|
|-22222222-|----------|----------|----------|
|-22222222-|-33333333-|-55555555-|-55555555-|
|-00000000-|-33333333-|-55555555-|-55555555-|
|----------|-11111111-|-33333333-|-33333333-|

repeat RIFF 1
Добавлено: 24.10.2015
Вам также может быть интересно:
Другие материалы по этой песне:
  • Аккорды и текст

Страница создана 24.10.2015
http://primanota.ru/raaka-aine/odota-chords.htm
Привет, Гость.
Предлагаем пройти революционный курс по гитаре.
Подарок от PrimaNota.Ru, забирай!