PrimaNota.ru - самый крупный в мире бесплатный архив песенных текстов, аккордов, табулатур и нот


Raaka-aine - Miehen Työ - таба, видео

Регистрация Запомнить меня
Войти через:  Facebook Google Twitter Vk Yandex Mail.ru

Raaka-aine - Miehen Työ - таба, видео

Печатать
Просмотров: 58
Авторы текста: Aapo Kaskinen
RAAKA-AINE - Miehen Työ

Tab by skyturnedred@gmail.com

Tuning: DGCFAD

. = palm mute


RIFF 1
|---------------------------------------|
|---------------------------------------|
|---------------------------------------|
|---------------------------------------|  x8
|--0-0-12-0-10-0-8-0-13-0-12-0-10-0-12--| 
|---------------------------------------|


RIFF 2 (verse)
|--------------------------------------|
|--------------------------------------|
|--------------------------------------|
|----------------------------5555------|
|-77-------33-------55-------3333-5555-|
|-55-------11-------33------------3333-|

|--------------------------------------|
|--------------------------------------|
|--------------------------------------|
|----------------------------5555------|
|-77777777-33333333-55555555-3333-5555-|
|-55555555-11111111-33333333------3333-|
  ........ ........ ........ .... ....


RIFF 1
|---------------------------------------|
|---------------------------------------|
|---------------------------------------|
|---------------------------------------|  x4
|--0-0-12-0-10-0-8-0-13-0-12-0-10-0-12--|
|---------------------------------------|


RIFF 2 (verse)
|--------------------------------------|
|--------------------------------------|
|--------------------------------------|
|----------------------------5555------|
|-77-------33-------55-------3333-5555-|
|-55-------11-------33------------3333-|

|--------------------------------------|
|--------------------------------------|
|--------------------------------------|
|----------------------------5555------|
|-77777777-33333333-55555555-3333-5555-|
|-55555555-11111111-33333333------3333-|
  ........ ........ ........


FILL
|-----------------------|
|-----------------------|
|-----------------------|
|-----------------------|
|-555-777-999-XXX-99-55-| X=10
|-333-555-777-888-77-33-|


RIFF 3 (chorus)
|-------------------------------------|
|-------------------------------------|
|-------------------------------------|
|-------------------55555555----------|  x2
|-77777777-33333333-33333333-55555555-|
|-55555555-11111111----------33333333-|


RIFF 1
|---------------------------------------|
|---------------------------------------|
|---------------------------------------|
|---------------------------------------|  x4
|--0-0-12-0-10-0-8-0-13-0-12-0-10-0-12--|
|---------------------------------------|


RIFF 2 (verse)
|--------------------------------------|
|--------------------------------------|
|--------------------------------------|
|----------------------------5555------|
|-77-------33-------55-------3333-5555-|
|-55-------11-------33------------3333-|

|--------------------------------------|
|--------------------------------------|
|--------------------------------------|
|----------------------------5555------|
|-77777777-33333333-55555555-3333-5555-|
|-55555555-11111111-33333333------3333-|
  ........ ........ ........


RIFF 4
|---------|---------|---------|---------|
|---------|---------|---------|---------|
|---------|---------|---------|---------|
|---------|-7-------|---------|-7-------|
|-2---3---|-5---7---|-2---3---|-5---7---|
|-0---1---|-----5---|-0---1---|-----5---|

|-----------------------------------------------|
|-----------------------------------------------|
|-----------------------------------------------|
|-----------------7-7-7-7-7-7-7-7-9999999999----|
|-2-2-2-2-3-3-3-3-5-5-5-5-5-5-5-5-7777777777----|
|-0-0-0-0-1-1-1-1-------------------------------|


RIFF 3 (chorus)
|-------------------------------------|
|-------------------------------------|
|-------------------------------------|
|-------------------55555555----------|  x2
|-77777777-33333333-33333333-55555555-|
|-55555555-11111111----------33333333-|


SOLO & FINAL CHORUS

|-------------------------------------|
|-------------------------------------|
|-------------------------------------| 
|-------------------77777777----------| x4
|-99999999-55555555-55555555-77777777-|
|-77777777-33333333----------55555555-|


OUTRO (no clue to be honest)
|-----------------------------------|
|-----------------------------------|
|------4---2-------5---4---2---4----|
|--------------5--------------------|  x4
|--2-2---2---2---2---2---2---2------|
|-----------------------------------|
Добавлено: 24.10.2015
Другие материалы по этой песне:

Страница создана 24.10.2015
http://primanota.ru/raaka-aine/miehen-tyo-chords.htm
Привет, Гость.
Предлагаем пройти революционный курс по гитаре.
Подарок от PrimaNota.Ru, забирай!