PrimaNota.ru - самый крупный в мире бесплатный архив песенных текстов, аккордов, табулатур и нот


Ra - Broken Hearted Soul - текст песни, таба, видео

Регистрация Запомнить меня
Войти через:  Facebook Google Twitter Vk Yandex Mail.ru

Ra - Broken Hearted Soul - текст песни, таба, видео

Печатать
Просмотров: 193
----------------------------------------------------------------------------
                                   Ra
                            Broken Hearted Soul
----------------------------------------------------------------------------

Hello, thanks you for viewing my guitar tab for a sweet song. I love how it is like
rock like Submersed. Both are great bands! So if you don't know Submersed and you like this
I would suggest you check them out. Anyway, this is a fun song to play if you like 
and stuff like that. The intro is my favorite part of the song. Enjoy!


Username: dkm817 (same on X box live)
Email: guitardrums@rockfan.com


Guitar 1 Rhythmic (C G C F A D)
Guitar 2 Lead     (C G C F A D)
Guitar 3 Rhythmic (C G C F A D) – only for intro

Intro 1 (Banjos I think)

Guitar 1
D------------------------------|
A-11~~~~-11~-10~-8-7~~~-7~-8~~-|
F-x----------x---x-x-------x---|
C-x----------x---x-x-------x---|
G-10~-10~~~~-9~~-6-5~-5~~~-6~~-|
C------------------------------|

Guitar 2
D-----8-10-11-10-8-10----8-----------------|
A-11~-----------------11---10-11~-10-8b~~~-|
F------------------------------------------|
C------------------------------------------|
G------------------------------------------|
C------------------------------------------|

Guitar 3
D------------------------------|
A------------------------------|
F------------------------------|
C------------------------------|
G------------------------------|
C------------------------------|


Guitar 1
D-----------------------------------|
A-11~~~~-11~-10~-8-7~-7-----8-7-----|
F-x----------x---x-x----7-------7---|
C-x----------x---x-x----------------|
G-10~-10~~~~-9~~-6-5~-----5-------5-|
C-----------------------------------|


Guitar 2
D-------10~~~----8-10-11-8-10----8--------|
A-11-10-------10--------------11---10~~~~-|
F-----------------------------------------|
C-----------------------------------------|
G-----------------------------------------|
C-----------------------------------------|

Guitar 3
D----8--10~~~----8-10-11-8-10----8--------|
A-10----------10--------------11---10~~~~-|
F-----------------------------------------|
C-----------------------------------------|
G-----------------------------------------|
C-----------------------------------------|

Guitar 1
D------------------------------|
A-11~~~~-11~-10~-8-7~~~-7~-8~~-|
F-x----------x---x-x-------x---|
C-x----------x---x-x-------x---|
G-10~-10~~~~-9~~-6-5~-5~~~-6~~-|
C------------------------------|

Guitar 2
D----------------8-----10-8-10-8-------8----------------------|
A-11~---8~-11-10---10~-----------11-10---11-10-8-11-10-8------|
F-----8--------------------------------------------------11~~-|
C-------------------------------------------------------------|
G-------------------------------------------------------------|
C-------------------------------------------------------------|

Guitar 3
D------------------------------|
A-11~~~~-11~-10~-8-7~~~-7~-8~~-|
F-x----------x---x-x-------x---|
C-x----------x---x-x-------x---|
G-10~-10~~~~-9~~-6-5~-5~~~-6~~-|
C------------------------------|

Guitar 1                |Distortion     |
D-----------------------|---------------|
A-11~~~~-11~-10~-8-7~~~-|---------------|
F-x----------x---x-x----|---------------|
C-x----------x---x-x----|5-x-5-x-5-x-5-x|
G-10~-10~~~~-9~~-6-5~~~-|5-x-5-x-5-x-5-x|
C-----------------------|5-x-5-x-5-x-5-x|

Guitar 2
D-------8-10~~~-8-10-11-13-11-10-11-13-14~~~~~~~~~~-|
A-10-11---------------------------------------------|
F---------------------------------------------------|
C---------------------------------------------------|
G---------------------------------------------------|
C---------------------------------------------------|

Guitar 3
D-----------------------------|
A-11~~~~-11~-10~-8-7~~~~~~~~~-|
F-x----------x---x-x----------|
C-x----------x---x-x----------|
G-10~-10~~~~-9~~-6-5~~~~~~~~~-|
C-----------------------------|

Intro 2

Guitar 1 x2
D---------------------------------------------------------------|
A---------------------------------------------------------------|
F---------------------------------------------------------------|
C-5-5-5-5-5-4-4-1-0-0-0-0-0-1-1-4-5-5-5-5-5-4-4-1-0-0-0-0-0-0-0-|
G-5-5-5-5-5-4-4-1-0-0-0-0-0-1-1-4-5-5-5-5-5-4-4-1-0-0-0-0-0-0-0-|
C-5-5-5-5-5-4-4-1-0-0-0-0-0-1-1-4-5-5-5-5-5-4-4-1-0-0-0-0-0-0-0-|
pm  . .   .   .     . .   .   .     . .   .   .     . . . . . .

Guitar 2 x2
D------------------------------------------------------------------------------|
A-11-11-11-11-11-10-10-8-7-7-7-7-7-8-8-10-11-11-11-11-11-10-10-8-7-7-7-7-7-7-7-|
F-x--x--x--x--x--x--x--x-x-x-x-x-x-x-x-x--x--x--x--x--x--x--x--x-x-x-x-x-x-x-x-|
C-x--x--x--x--x--x--x--x-x-x-x-x-x-x-x-x--x--x--x--x--x--x--x--x-x-x-x-x-x-x-x-|
G-10-10-10-10-10-9--9--6-5-5-5-5-5-6-6-9--10-10-10-10-10-9--9--6-5-5-5-5-5-5-5-|
C------------------------------------------------------------------------------|
pm   .  .     .     .      . .   .   .       .  .     .     .      . . . . . .

Verse

Guitar 1 x2
D---------------------------------------------------------------|
A---------------------------------------------------------------|
F---------------------------------------------------------------|
C-5-5-5-5-5-4-4-1-0-0-0-0-0-1-1-4-5-5-5-5-5-4-4-1-0-0-0-0-0-0-0-|
G-5-5-5-5-5-4-4-1-0-0-0-0-0-1-1-4-5-5-5-5-5-4-4-1-0-0-0-0-0-0-0-|
C-5-5-5-5-5-4-4-1-0-0-0-0-0-1-1-4-5-5-5-5-5-4-4-1-0-0-0-0-0-0-0-|
pm  . .   .   .     . .   .   .     . .   .   .     . . . . . .

Guitar 2 x2
D------------------------------------------------------------------------------|
A-11-11-11-11-11-10-10-8-7-7-7-7-7-8-8-10-11-11-11-11-11-10-10-8-7-7-7-7-7-7-7-|
F-x--x--x--x--x--x--x--x-x-x-x-x-x-x-x-x--x--x--x--x--x--x--x--x-x-x-x-x-x-x-x-|
C-x--x--x--x--x--x--x--x-x-x-x-x-x-x-x-x--x--x--x--x--x--x--x--x-x-x-x-x-x-x-x-|
G-10-10-10-10-10-9--9--6-5-5-5-5-5-6-6-9--10-10-10-10-10-9--9--6-5-5-5-5-5-5-5-|
C------------------------------------------------------------------------------|
pm   .  .     .     .      . .   .   .       .  .     .     .      . . . . . .

Pre Chorus

Guitar 1
D-----------------------------------------------------|
A-----------------------------------------------------|
F-5-5-5-5-5-5-5-5-5-5-5-5-8-8-8-8-8-8-8-8-14-14-14-14-|
C-5-5-5-5-5-5-5-5-5-5-5-5-8-8-8-8-8-8-8-8-14-14-14-14-|
G-3-3-3-3-3-3-3-3-3-3-3-3-6-6-6-6-6-6-6-6-12-12-12-12-|
C-----------------------------------------------------|

Guitar 2
D-----------------------------------------------------------------|
A-----------------------------------------------------------------|
F-5-5-5-5-5-5-5-5-10-10-10-10-12-12-12-12-12-12-12-12-14-14-14-14-|
C-x-x-x-x-x-x-x-x-x--x--x--x--x--x--x--x--x--x--x--x--x--x--x--x--|
G-3-3-3-3-3-3-3-3-8--8--8--8--10-10-10-10-10-10-10-10-12-12-12-12-|
C-----------------------------------------------------------------|

Chorus

Guitar 1
D-----------------------------------------------------------------------|
A-----------------------------------------------------------------------|
F-12-12-12-12-12-12-12-5-5-5-5-5-5-5-10-10-10-10-10-10-10-7-7-7-7-7-7-7-|
C-12-12-12-12-12-12-12-5-5-5-5-5-5-5-10-10-10-10-10-10-10-7-7-7-7-7-7-7-|
G-10-10-10-10-10-10-10-3-3-3-3-3-3-3-8--8--8--8--8--8--8--5-5-5-5-5-5-5-|
C-----------------------------------------------------------------------|

Guitar 2
D------------------------------------------------------------------|
A------------------------------------------------------------------|
F-12-12-12-12-12-12-12-7-7-7-7-5-5-5-5-8-8-8-8-8-8-8-8-7-7---------|
C-x--x--x--x--x--x--x--x-x-x-x-x-x-x-x-x-x-x-x-x-x-x-x-x-x-8-8-7-7-|
G-10-10-10-10-10-10-10-5-5-5-5-3-3-3-3-6-6-6-6-6-6-6-6-5-5-8-8-7-7-|
C----------------------------------------------------------8-8-7-7-|

Guitar 1
D------------------------------------------------------------------|
A------------------------------------------------------------------|
F-12-12-12-12-12-12-12-5-5-5-5-5-5-5-10-10-10-10-10-10-10-7--------|
C-12-12-12-12-12-12-12-5-5-5-5-5-5-5-10-10-10-10-10-10-10-7--------|
G-10-10-10-10-10-10-10-3-3-3-3-3-3-3-8--8--8--8--8--8--8--5--------|
C------------------------------------------------------------------|

Guitar 2
D-----------------------------------------------------------------|
A-----------------------------------------------------------------|
F-12-12-12-12-12-12-12-7-7-7-7-5-5-5-5-8-8-8-8-8-8-8-8-7----------|
C-x--x--x--x--x--x--x--x-x-x-x-x-x-x-x-x-x-x-x-x-x-x-x-x----------|
G-10-10-10-10-10-10-10-5-5-5-5-3-3-3-3-6-6-6-6-6-6-6-6-5----------|
C-----------------------------------------------------------------|

Break Off

Guitar 1 x2
D---------------------------------------------------------------|
A---------------------------------------------------------------|
F---------------------------------------------------------------|
C-5-5-5-5-5-4-4-1-0-0-0-0-0-1-1-4-5-5-5-5-5-4-4-1-0-0-0-0-0-0-0-|
G-5-5-5-5-5-4-4-1-0-0-0-0-0-1-1-4-5-5-5-5-5-4-4-1-0-0-0-0-0-0-0-|
C-5-5-5-5-5-4-4-1-0-0-0-0-0-1-1-4-5-5-5-5-5-4-4-1-0-0-0-0-0-0-0-|
pm  . .   .   .     . .   .   .     . .   .   .     . . . . . .

Guitar 2
D-------------------------------------------------------------------------|
A-------------------------------------------------------------------------|
F-12-12-12-12-12-12-12-12-14-14-14-14-14-14-14-14-15-15-15-15-15-15-15-15-|
C-x--x--x--x--x--x--x--x--x--x--x--x--x--x--x--x--x--x--x--x--x--x--x--x--|
G-10-10-10-10-10-10-10-10-12-12-12-12-12-12-12-12-13-13-13-13-13-13-13-13-|
C-------------------------------------------------------------------------|

Guitar 2 continued
D-------------------------------------------------------------------------|
A-------------------------------------------------------------------------|
F-17-17-17-17-20-20-20-20-19-19-19-19-19-19-19-19-13-13-13-13-13-13-13-13-|
C-x--x--x--x--x--x--x--x--x--x--x--x--x--x--x--x--x--x--x--x--x--x--x--x--|
G-15-15-15-15-18-18-18-18-17-17-17-17-17-17-17-17-11-11-11-11-11-11-11-11-|
C-------------------------------------------------------------------------|

Guitar 2 continued
D-----------------------------------------|
A-----------------------------------------|
F-12-12-12-12-12-12-12-12-7-7-7-7-7-7-7-7-|
C-x--x--x--x--x--x--x--x--x-x-x-x-x-x-x-x-|
G-10-10-10-10-10-10-10-10-5-5-5-5-5-5-5-5-|
C-----------------------------------------|

Verse

Guitar 1 x2
D---------------------------------------------------------------|
A---------------------------------------------------------------|
F---------------------------------------------------------------|
C-5-5-5-5-5-4-4-1-0-0-0-0-0-1-1-4-5-5-5-5-5-4-4-1-0-0-0-0-0-0-0-|
G-5-5-5-5-5-4-4-1-0-0-0-0-0-1-1-4-5-5-5-5-5-4-4-1-0-0-0-0-0-0-0-|
C-5-5-5-5-5-4-4-1-0-0-0-0-0-1-1-4-5-5-5-5-5-4-4-1-0-0-0-0-0-0-0-|
pm  . .   .   .     . .   .   .     . .   .   .     . . . . . .

Guitar 2 x2
D------------------------------------------------------------------------------|
A-11-11-11-11-11-10-10-8-7-7-7-7-7-8-8-10-11-11-11-11-11-10-10-8-7-7-7-7-7-7-7-|
F-x--x--x--x--x--x--x--x-x-x-x-x-x-x-x-x--x--x--x--x--x--x--x--x-x-x-x-x-x-x-x-|
C-x--x--x--x--x--x--x--x-x-x-x-x-x-x-x-x--x--x--x--x--x--x--x--x-x-x-x-x-x-x-x-|
G-10-10-10-10-10-9--9--6-5-5-5-5-5-6-6-9--10-10-10-10-10-9--9--6-5-5-5-5-5-5-5-|
C------------------------------------------------------------------------------|
pm   .  .     .     .      . .   .   .       .  .     .     .      . . . . . .

Pre Chorus

Guitar 1
D-----------------------------------------------------|
A-----------------------------------------------------|
F-5-5-5-5-5-5-5-5-5-5-5-5-8-8-8-8-8-8-8-8-14-14-14-14-|
C-5-5-5-5-5-5-5-5-5-5-5-5-8-8-8-8-8-8-8-8-14-14-14-14-|
G-3-3-3-3-3-3-3-3-3-3-3-3-6-6-6-6-6-6-6-6-12-12-12-12-|
C-----------------------------------------------------|

Guitar 2
D-----------------------------------------------------------------|
A-----------------------------------------------------------------|
F-5-5-5-5-5-5-5-5-10-10-10-10-12-12-12-12-12-12-12-12-14-14-14-14-|
C-x-x-x-x-x-x-x-x-x--x--x--x--x--x--x--x--x--x--x--x--x--x--x--x--|
G-3-3-3-3-3-3-3-3-8--8--8--8--10-10-10-10-10-10-10-10-12-12-12-12-|
C-----------------------------------------------------------------|

Chorus

Guitar 1 x4
D-----------------------------------------------------------------------|
A-----------------------------------------------------------------------|
F-12-12-12-12-12-12-12-5-5-5-5-5-5-5-10-10-10-10-10-10-10-7-7-7-7-7-7-7-|
C-12-12-12-12-12-12-12-5-5-5-5-5-5-5-10-10-10-10-10-10-10-7-7-7-7-7-7-7-|
G-10-10-10-10-10-10-10-3-3-3-3-3-3-3-8--8--8--8--8--8--8--5-5-5-5-5-5-5-|
C-----------------------------------------------------------------------|

Guitar 2 x4
D------------------------------------------------------------------|
A------------------------------------------------------------------|
F-12-12-12-12-12-12-12-7-7-7-7-5-5-5-5-8-8-8-8-8-8-8-8-7-7---------|
C-x--x--x--x--x--x--x--x-x-x-x-x-x-x-x-x-x-x-x-x-x-x-x-x-x-8-8-7-7-|
G-10-10-10-10-10-10-10-5-5-5-5-3-3-3-3-6-6-6-6-6-6-6-6-5-5-8-8-7-7-|
C----------------------------------------------------------8-8-7-7-|

Bridge 1 (Banjos again)

Guitar 1 x8
D-3-----3-----3---3-----3-----3---|
A-x-x-x-x-x-x-x-x-x-x-x-x-x-x-x-x-|
F-3-3-3-3-3-3-3-3-5-5-5-5-5-5-5-5-|
C-x-x-x-x-x-x-x-x-x-x-x-x-x-x-x-x-|
G-1-1-1-1-1-1-1-1-3-3-3-3-3-3-3-3-|
C---------------------------------|

Guitar 2 x4
D-13-11-10----11-10-------10----------------------------------|
A----------13-------13-11----13-11-10-13-11-10-12-11-10-------|
F-------------------------------------------------------12-11-|
C-------------------------------------------------------------|
G-------------------------------------------------------------|
C-------------------------------------------------------------|

Guitar 2 continued
D--------------------10-------10-11-|
A----10-11~-10-11-13----11-13-------|
F-12--------------------------------|
C-----------------------------------|
G-----------------------------------|
C-----------------------------------|

Bridge 2

Guitar 1 & 2 x2
D-------------------------------------------------------------------------|
A-------------------------------------------------------------------------|
F-12-12-12-12-12-12-12-12-14-14-14-14-14-14-14-14-15-15-15-15-15-15-15-15-|
C-x--x--x--x--x--x--x--x--x--x--x--x--x--x--x--x--x--x--x--x--x--x--x--x--|
G-10-10-10-10-10-10-10-10-12-12-12-12-12-12-12-12-13-13-13-13-13-13-13-13-|
C-------------------------------------------------------------------------|

Guitar 1 & 2 continued
D-------------------------|
A-------------------------|
F-17-17-17-17-20-20-20-20-|
C-x--x--x--x--x--x--x--x--|
G-15-15-15-15-18-18-18-18-|
C-------------------------|

Pre Chorus

Guitar 1
D-----------------------------------------------------|
A-----------------------------------------------------|
F-5-5-5-5-5-5-5-5-5-5-5-5-8-8-8-8-8-8-8-8-14-14-14-14-|
C-5-5-5-5-5-5-5-5-5-5-5-5-8-8-8-8-8-8-8-8-14-14-14-14-|
G-3-3-3-3-3-3-3-3-3-3-3-3-6-6-6-6-6-6-6-6-12-12-12-12-|
C-----------------------------------------------------|

Guitar 2
D-----------------------------------------------------------------|
A-----------------------------------------------------------------|
F-5-5-5-5-5-5-5-5-10-10-10-10-12-12-12-12-12-12-12-12-14-14-14-14-|
C-x-x-x-x-x-x-x-x-x--x--x--x--x--x--x--x--x--x--x--x--x--x--x--x--|
G-3-3-3-3-3-3-3-3-8--8--8--8--10-10-10-10-10-10-10-10-12-12-12-12-|
C-----------------------------------------------------------------|

Chorus

Guitar 1 x3
D-----------------------------------------------------------------------|
A-----------------------------------------------------------------------|
F-12-12-12-12-12-12-12-5-5-5-5-5-5-5-10-10-10-10-10-10-10-7-7-7-7-7-7-7-|
C-12-12-12-12-12-12-12-5-5-5-5-5-5-5-10-10-10-10-10-10-10-7-7-7-7-7-7-7-|
G-10-10-10-10-10-10-10-3-3-3-3-3-3-3-8--8--8--8--8--8--8--5-5-5-5-5-5-5-|
C-----------------------------------------------------------------------|

Guitar 2 x3
D------------------------------------------------------------------|
A------------------------------------------------------------------|
F-12-12-12-12-12-12-12-7-7-7-7-5-5-5-5-8-8-8-8-8-8-8-8-7-7---------|
C-x--x--x--x--x--x--x--x-x-x-x-x-x-x-x-x-x-x-x-x-x-x-x-x-x-8-8-7-7-|
G-10-10-10-10-10-10-10-5-5-5-5-3-3-3-3-6-6-6-6-6-6-6-6-5-5-8-8-7-7-|
C----------------------------------------------------------8-8-7-7-|

Guitar 1
D------------------------------------------------------------------|
A------------------------------------------------------------------|
F-12-12-12-12-12-12-12-5-5-5-5-5-5-5-10-10-10-10-10-10-10-7--------|
C-12-12-12-12-12-12-12-5-5-5-5-5-5-5-10-10-10-10-10-10-10-7--------|
G-10-10-10-10-10-10-10-3-3-3-3-3-3-3-8--8--8--8--8--8--8--5--------|
C------------------------------------------------------------------|

Guitar 2                                                BROKEN HEARTED SOUL
D-----------------------------------------------------------------|
A-----------------------------------------------------------------|
F-12-12-12-12-12-12-12-7-7-7-7-5-5-5-5-8-8-8-8-8-8-8-8-7----------|
C-x--x--x--x--x--x--x--x-x-x-x-x-x-x-x-x-x-x-x-x-x-x-x-x----------|
G-10-10-10-10-10-10-10-5-5-5-5-3-3-3-3-6-6-6-6-6-6-6-6-5----------|
C-----------------------------------------------------------------|

Tab Legend
h  -  hammer-on
p  -  pull-off
/  -  slide up
\  -  slide down
ps/-  pickslide up
ps\-  pickslide down
~  -  let ring
pm.-  palm mute
b  -  bend
r  -  return from bend
*  -  harmonic
x  -  dead note

Well there you go, if there are any parts I accidentally left out or didn't do right
tell me or make a better one. Email me if I did well. Oh and one last thing... ROCK OUT!!!!
Добавлено: 08.04.2012
Другие материалы по этой песне:
  • Аккорды и текст

Страница создана 08.04.2012
http://primanota.ru/ra/broken-hearted-soul-chords.htm
Привет, Гость.
Предлагаем пройти революционный курс по гитаре.
Подарок от PrimaNota.Ru, забирай!