PrimaNota.ru - самый крупный в мире бесплатный архив песенных текстов, аккордов, табулатур и нот


R For Renegade - Stars May Fall - таба, видео

Регистрация Запомнить меня
Войти через:  Facebook Google Twitter Vk Yandex Mail.ru

R For Renegade - Stars May Fall - таба, видео

Печатать
Просмотров: 85
-------------------------------------------------------------------------------
                             R For Renegade-Stars May Fall
-------------------------------------------------------------------------------
Tabbed by:Nick Karagiannidis


Tuning:Drop C#

INTRO/VERSE Clean

e|---------------------------------------------------------------------------|
B|---------------------------------------------------------------7-----------|
G|-------6-----6----------6-----6/4-------4-----4----------9-------9---------|
D|-----4---4-----4------0---0-----------2---2-----2------7---7---------------|
A|---4-------4--------0-------0-------2-------2--------7-------7-------------| 
E|-4----------------0---------------2----------------7-----------------------|

e|---------------------------------------------------------------------------|
B|---------------------------------------------------------------------------|
G|-------6-----6---------6-----6/4-------4-----4---------4-------4-----------|
D|-----4---4-----4-----0---0-----------2---2-----2-----0-------2-------------|
A|---4-------4-------0-------0-------2-------2-------0-------2---------------|
E|-4---------------0---------------2---------------0-------2-----------------|

Play 3 times

Transition (Dist Guitar) When the clean guitar plays the last 3 chords

e|---------------------------------------------------------------------------|
B|---------------------------------------------------------------------------|
G|------------------4444-----------------------------------------------------|
D|--7/22222222-0000-2222-----------------------------------------------------|
A|--7/22222222-0000-2222-----------------------------------------------------|
E|--7/22222222-0000-2222-----------------------------------------------------|
      ******** *** 

CHORUS(Both Distorted)

e|---------------------------------------------------------------------------|
B|---------------------------------------------------------------------------|
G|--6-666-6--6-666-6--9-999-9--4-444-4---7-6---------------------------------|
D|--4-444-4--0-000-0--7-777-7--2-222-2---7-6---------------------------------|
A|--4-444-4--0-000-0--7-777-7--2-222-2---7-6---------------------------------|
E|--4-444-4--0-000-0--7-777-7--2-222-2---7-6---------------------------------|
      ***      ***      ***      ***
e|---------------------------------------------------------------------------|
B|---------------------------------------------------------------------------|
G|--6-666-6--6-666-6--4-444-4---4-4------------------------------------------|
D|--4-444-4--0-000-0--2-222-2---0-2------------------------------------------|
A|--4-444-4--0-000-0--2-222-2---0-2------------------------------------------|
E|--4-444-4--0-000-0--2-222-2---0-2------------------------------------------|
      ***      ***      ***

Repeat Verse 3 Times

Chorus is the same but the last time you change the last 2 chrods with these 
e|---------------------------------------------------------------------------|
B|---------------------------------------------------------------------------|
G|--9-11---------------------------------------------------------------------|
D|--7-9----------------------------------------------------------------------|
A|--7-9----------------------------------------------------------------------|
E|--7-9----------------------------------------------------------------------|

Bridge(1 Guitar-Clean)
The picking is same with the intro and you play each chord twice
Play this 2 times
e|---------------------------------------------------------------------------|
B|---------------------------------------------------------------------------|
G|--6---6---9---4------------------------------------------------------------|
D|--4---0---7---2------------------------------------------------------------|
A|--4---0---7---2------------------------------------------------------------|
E|--4---0---7---2------------------------------------------------------------|

Bridge(Both guitars Distorted)
I'll give you the chord and how many times you play it
This is played with downstrokes only!

e|---------------------------------------------------------------------------|
B|---------------------------------------------------------------------------|
G|--6--9--4--2---------------------------------------------------------------|
D|--4--7--2--0---------------------------------------------------------------|
A|--4--7--2--0---------------------------------------------------------------|
E|--4--7--2--0---------------------------------------------------------------|

You have to play each chord 16 times!

Solo will be coming in a different version these are the rhythm parts!

************************************

| /   slide up
| \   slide down
| h   hammer-on
| p   pull-off
| ~   vibrato
| +   harmonic
| *   Mute note
| b   Bend
| pb  Pre-bend
| br  Bend release
| pbr Pre-bend release
| brb Bend release bend

************************************
Добавлено: 05.09.2015
Другие материалы по этой песне:
  • Аккорды и текст

Страница создана 05.09.2015
http://primanota.ru/r-for-renegade/stars-may-fall-chords.htm
Привет, Гость.
Предлагаем пройти революционный курс по гитаре.
Подарок от PrimaNota.Ru, забирай!