PrimaNota.ru - самый крупный в мире бесплатный архив песенных текстов, аккордов, табулатур и нот


Quorthon - Oh No No - таба, видео

Регистрация Запомнить меня
Войти через:  Facebook Google Twitter Vk Yandex Mail.ru

Quorthon - Oh No No - таба, видео

Печатать
Просмотров: 171
Quorthon - Oh No No
-------------------

Tuning: Drop D (D A D G B E)

No solo this time. Sorry.


Intro/Bridge/Solo A

E|---------------------|-----------------------|
B|---------------------|-----------------------|
G|---------------------|-----------------------|
D|---------------------|-----------------------|
A|-----5--------0--0-3-|-----5----------5--12\-|
D|-2-3---0--2-3--------|-2-3---0--2-3-0-5--12\-|
  

Verse

E|------------------|---------------|------------------|--------------|
B|------------------|-------------6-|------------------|--------------|
G|------------------|-------------5-|------------------|--------------|
D|------5-4-----5-4-|----5-4------3-|------5-4-----5-4-|--------------|
A|------5-5-----5-5-|----5-5--3-3---|------5-5-----5-5-|-0-2-3--0-12\-|
D|-0-00------00-----|-00------3-3---|-0-00------00-----|-0-2-3--0-12\-|
   . ..      ..       ..              . ..      ..
       

Pre-Chorus
E|---------------------|-------------------|
B|---------------------|-----------6----6--|
G|---------------------|-----------5----5--| not quite sure
D|---------------------|-----------3----3--| about this part
A|---------------------|-------------------|
D|-0-3p0-3p0-0-3p0-3p0-|-0-3p0-3p0----3----|


Chrorus
E|---------------------------|
B|---------------------------| after this riff
G|---------------------------| play the first 2 bars
D|-5--5--5-5-5-8--8-8--------| of Verse, then
A|-5--5--5-5-5-8--8-8-3----3-| repeat this riff again
D|-5--5--5-5-5-8--8-8-3-33-3-|
                        ..

Solo B
E|---------------|-----------------|-----------------|-----------------|
B|---------------|-----------------|-----------------|-----------------| 
G|---------------|-----------------|-----------------|-----------------| 
D|-3-3-3-3-3-3-3-|-----------------|-----------------|-----------------|  
A|-1-1-1-1-1-1-1-|-3-3-3-3-3-3-3-3-|-5-5-5-5-5-5-5-5-|-1-1-1-1-1-1-1-1-| 
D|---------------|-3-3-3-3-3-3-3-3-|-5-5-5-5-5-5-5-5-|-1-1-1-1-1-1-1-1-|

E|---------------|-----------------|-----------------|-----------------|
B|---------------|-----------------|-----------------|-----------------| 
G|---------------|-----------------|-----------------|-----------------| 
D|---------------|-----------------|-----------------|-----------------|  
A|-1-1-1-1-1-1-1-|-3-3-3-3-3-3-3-3-|-5-5-5-5-5-5-5-5-|-5-5-5-5-5-5-5-5-| 
D|-1-1-1-1-1-1-1-|-3-3-3-3-3-3-3-3-|-5-5-5-5-5-5-5-5-|-5-5-5-5-5-5-5-5-|


Outro

E|--------------|
B|--------------|
G|--------------| let ring the 
D|--------------| last note
A|-1-1---3-3--5-|
D|-1-1---3-3--5-|


Description:
------------
p -> pull-of
. -> palm mute


tabbed by PelzR
Добавлено: 05.06.2012
Другие материалы по этой песне:
  • Аккорды и текст

Страница создана 05.06.2012
http://primanota.ru/quorthon/oh-no-no-chords.htm
Привет, Гость.
Предлагаем пройти революционный курс по гитаре.
Подарок от PrimaNota.Ru, забирай!