PrimaNota.ru - самый крупный в мире бесплатный архив песенных текстов, аккордов, табулатур и нот


Quorthon - No More And Never Again - таба, видео

Регистрация Запомнить меня
Войти через:  Facebook Google Twitter Vk Yandex Mail.ru

Quorthon - No More And Never Again - таба, видео

Печатать
Просмотров: 319
Уроки эстрадного вокала в Санкт-Петербурге
Quorthon - No More And Never Again
----------------------------------

Tuning: Drop D (D A D G B E)

Maybe there are some mistakes (Refrain A ?), but I think most should be correct. 
Also this time no song structure, it should be easy to learn which riffs comes next.
And sorry, no solo.


Intro/Main-Riff/Interlude (Solo)

E|-------------|----------------|-----------------|-----------------|
B|-------------|----------------|-----------------|-----------------|
G|-------------|----------------|o----------------|----------------o|
D|-------------|----------------|o----------------|----------------o|
A|-0------3--5-|-0--------3-5-5-|--3---------3--5-|-0--------3-5-5--|
D|-0--7p0-3--5-|-0--0-7p0-3-5-5-|--3---0-7p0-3--5-|-0--0-7p0-3-5-5--|
  

Verse

E|-----------------|----------------|-----------------|-------------|
B|-----------------|----------------|-----------------|-------------|
G|-----------------|----------------|-----------------|-------------|
D|-----------0-0-0-|----------------|---------0-0-0-0-|-------------|
A|-2-2-2-0-2-------|-0-2-0-2-2-2-5--|-2-2-0-2---------|-0-2-0-2-2-2-|
D|-2-2-2-0-2-------|-0-2-0-2-2-2-5--|-2-2-0-2---------|-0-2-0-2-2-2-|
             . . .                            . . . .


Refrain A

E|-----------------|-----------------|--------------|----------------|
B|-----------------|-----------------|--------------|----------------|
G|-----------------|-----------------|--------------|------7-7-7-7-7-|
D|-7-7-7-7-7-7-7-7-|-5-5-5-5-5-5-5-5-|-3--3-2-------|------7-7-7-7-7-|
A|-5-5-5-4-4-4-4-4-|-3-3-3-2-2-2-2-2-|-1--1-0-3-5-3-|-0--0-5-5-5-5-5-|
D|-----------------|-----------------|--------3-5-3-|-0--0-----------|


Refrain B

E|-----------------|----------------|-----------------|----------------|
B|-----------------|----------------|-----------------|----------------|
G|-----7-----7-----|-7-----7-7-7----|-----5-----5-----|-5-----5-5-5----| repeat only 
D|-----7-----7-----|-7-----7-7-7-2--|-----3-----3-----|-3-----3-3-3-5--| the first 2 bars
A|-0-0-5-0-0-5-0-0-|-5-0-0-5-5-5-2--|-3-3-3-3-3-3-3-3-|-3-3-3-3-3-3-5--|
D|-0-0-0-0-0-0-0-0-|-0-0-0-0-0-0-2--|-3-3-3-3-3-3-3-3-|-3-3-3-3-3-3-5--|


Bridge

E|------------|------------|---------|
B|------------|------------|---------|
G|------------|------------|---------|
D|------------|------------|---------|
A|------------|------------|---------|
D|-3-0-0-7p0--|-3-0-0-7p0--|-5p0-0-0-|



Description:
------------
p -> pull-of
. -> palm mute

o
o -> repeat

tabbed by PelzR
Добавлено: 26.07.2012
Вам также может быть интересно:
Другие материалы по этой песне:
  • Аккорды и текст

Страница создана 26.07.2012
http://primanota.ru/quorthon/no-more-and-never-again-chords.htm
Привет, Гость.
Предлагаем пройти революционный курс по гитаре.
Подарок от PrimaNota.Ru, забирай!