PrimaNota.ru - самый крупный в мире бесплатный архив песенных текстов, аккордов, табулатур и нот


Quorthon - Ive Had It Coming My Way - текст песни, таба, видео

Регистрация Запомнить меня
Войти через:  Facebook Google Twitter Vk Yandex Mail.ru

Quorthon - Ive Had It Coming My Way - текст песни, таба, видео

Печатать
Просмотров: 76
song: I've Had It Coming My Way
artist: Quorthon
album: Purity of Essence
tabbed by: vikingman369

this is a really cool song

drop D tuning

rest during drum intro

[riff A]
E|-----------------------------------|
B|-----------------------------------|
G|-----------------------------------|
D|--3/5-5-5-8-8-8-8-1-1-1-1-5-5-3-1--|
A|--3/5-5-5-8-8-8-8-1-1-1-1-5-5-3-1--|
D|--3/5-5-5-8-8-8-8-1-1-1-1-5-5-3-1--|

[riff B - chorus riff]
E|-------------------------------|
B|-------------------------------|
G|-------------------------------|
D|--0-2-2-0-2--0-2--0-5--0-3-(1)-|
A|--0-2-2-0-2--0-2--0-5--0-3-(1)-|
D|--0-2-2-0-2--0-2--0-5--0-3-(1)-|

[riff C - pre-chorus riff]
E|-------------------------------|
B|-------------------------------|
G|-------------------------------|
D|--0-3-3-0-3--0-3--0-1--0-1-(1)-|
A|--0-3-3-0-3--0-3--0-1--0-1-(1)-|
D|--0-3-3-0-3--0-3--0-1--0-1-(1)-|

[riff D - between pre-chorus and chorus]
E|--------------|
B|--------------|
G|--------------|
D|--0-0---0--0--|
A|--0-0---0--0--|
D|--0-0---0--0--|

[riff E - outro]
E|-----------------------------------|
B|-----------------------------------|
G|-----------------------------------|
D|--5-5-5-5-5-5-5-5-3-3-3-3-1-1-1-1--|
A|--5-5-5-5-5-5-5-5-3-3-3-3-1-1-1-1--|
D|--5-5-5-5-5-5-5-5-3-3-3-3-1-1-1-1--|

here's how the song goes...
riff A - 4x
riff B - 4x
riff A - 8x
riff C - 3x
riff D - 1x
riff B - 4x
riff A - 8x
riff C - 3x
riff D - 1x
riff B - 4x
riff A - 8x (plays through guitar solo)
riff C - 3x
riff D - 1x
riff B - 4x
riff A - 4x
riff E - 8x
*riff A - 1x

* = play this variation, without palm-muting the chords

E|-----------------------------------------|
B|-----------------------------------------|
G|-----------------------------------------|
D|--3/5-5-5-8-8-8-8-1-1-1-1-5-5-3-1/5~~~\--|
A|--3/5-5-5-8-8-8-8-1-1-1-1-5-5-3-1/5~~~\--|
D|--3/5-5-5-8-8-8-8-1-1-1-1-5-5-3-1/5~~~\--|

that's pretty much how the song goes. enjoy playing it

[guitar solo]
E|-----------------------------------------|
B|-------------------------11--------------|
G|--10-12-12-10-12--10-12-----12-10-12--12-|
D|-----------------------------------------|
A|-----------------------------------------|
D|-----------------------------------------|

E|-----------------------------------------------|
B|-----------11-------11-13-13b15r13-11----11----|
G|--10-12-12----12-10-------------------12----12-|
D|-----------------------------------------------|
A|-----------------------------------------------|
D|-----------------------------------------------|

E|------------10-----------------------------------------|
B|--11-13b15~----13b~-13b~-13b~-13b~-13b~-13b~-13b~-13b~-|
G|-------------------------------------------------------|
D|-------------------------------------------------------|
A|-------------------------------------------------------|
D|-------------------------------------------------------|

E|--15-10-8--13p10p8h13p10p8h13p10p8h13p10p8-----------------12b~~-|
B|-------------------------------------------13p10p8h13p10p8-------|
G|-----------------------------------------------------------------|
D|-----------------------------------------------------------------|
A|-----------------------------------------------------------------|
D|-----------------------------------------------------------------|

things to know

/ - slide down the neck (towards your picking hand)
\ - slide up the neck (away from your picking hand)
(1) - optional note
b - bend string
r - return from bend
h - hammer-on
p - pull-off
~ - sustained note
Добавлено: 07.10.2013
Другие материалы по этой песне:

Страница создана 10.04.2012
http://primanota.ru/quorthon/ive-had-it-coming-my-way-chords.htm
Привет, Гость.
Предлагаем пройти революционный курс по гитаре.
Подарок от PrimaNota.Ru, забирай!