PrimaNota.ru - самый крупный в мире бесплатный архив песенных текстов, аккордов, табулатур и нот


Quorthon - Its Ok - текст песни, таба, видео

Регистрация Запомнить меня
Войти через:  Facebook Google Twitter Vk Yandex Mail.ru

Quorthon - Its Ok - текст песни, таба, видео

Печатать
Просмотров: 165
Quorthon - It's OK
-------------------

Tuning: Drop D (D A D G B E)


Intro (Clean Guitar)

E|-----------------|--------------|
B|-----5-------5---|-5--------5---|
G|---4-------4-----|---4--------4-|
D|-2-----0---------|--------2-----|
A|---------3-----0-|--------------|
D|-----------------|-----2--------|
  

Verse A/Solo

E|--------------|-------------|
B|--------------|-------------|
G|---------5----|-------------|
D|---------5----|-------------|
A|-0-2-2-0-3--0-|-5--7-7--3-3-|
D|-0-2-2-0----0-|-5--7-7--3-3-|


Verse B 

Guitar 1

E|-----------------|-----------------|-----------------|-----------------|
B|-----------------|-----------------|-----------------|-----------------|
G|-----------------|-----------------|-----------------|-----------------|
D|-----------------|-----------------|---------2-2-2-2-|-----------------|
A|-2-2-2-2-5-5-5-5-|-4-4-4-4-4-4-4-4-|-2-2-2-2-0-0-0-0-|-4-4-4-4-4-4-4-4-|
D|-2-2-2-2-5-5-5-5-|-4-4-4-4-4-4-4-4-|-2-2-2-2---------|-4-4-4-4-4-4-4-4-|

E|-----------------|-----------------|-----------------|-----------------|
B|-----------------|-----------------|-----------------|-----------------|
G|-----------------|-----------------|-----------------|-----------------|
D|-----------------|-----------------|---------4-4-4-4-|-5-5-5-5-5-5-5-5-|
A|-2-2-2-2-5-5-5-5-|-4-4-4-4-4-4-4-4-|-2-2-2-2-2-2-2-2-|-3-3-3-3-3-3-3-3-|
D|-2-2-2-2-5-5-5-5-|-4-4-4-4-4-4-4-4-|-2-2-2-2---------|-----------------|

E|-----------------|-----------------|-----------------|
B|-----------------|-----------------|-----------------|
G|-----------------|-----------------|-----------------|
D|-7-7-7-7-7-7-7-7-|-4-4-4-4-4-4-4-4-|-5-5-5-5-5-5-5-5-|
A|-5-5-5-5-5-5-5-5-|-2-2-2-2-2-2-2-2-|-3-3-3-3-3-3-3-3-|
D|-----------------|-----------------|-----------------|


Guitar 2

the second guitar plays something like this the whole Verse B

E|-----------------|
B|-----5-------5---| "let ring" every note 
G|---4---4---4---4-| to get this 
D|-2-------2-------| distorted chord sound
A|-----------------| and listen carefully
D|-----------------| for the timing


Pre-Chorus

Guitar 1

E|------------------------|
B|------------------------|
G|-2-2-2------5--5-5-7--7-|
D|-2-2-2-3--3-5--5-5-7--7-|
A|-0-0-0-3--3-3--3-3-5--5-|
D|-------3--3-------------|


Guitar 2 (quit in the background)

E|------------------------|
B|-5-5-5-6--6-5--5-5-3--3-|
G|-4-4-4-5--5-4--4-4-2--2-|
D|-2-2-2-3--3-2--2-2-0--0-|
A|------------------------|
D|------------------------|


Chorus

Guitar 1

E|-------------|-----------------|
B|-------------|-----------------|
G|-2--2--------|-----------------| at the last Chorus
D|-2--2-3-3--2-|-----------------| let ring the last
A|-0--0-3-3--2-|-2-2-2-2-2-2-2-2-| note in the first bar
D|------3-3--2-|-2-2-2-2-2-2-2-2-|


Guitar 2

E|-------------|-----------------| at the last Chorus
B|-5---------5-|-----5-----5-----| let ring the last
G|-4---------4-|-------4-----4---| note in the first bar
D|-2---------2-|---------2-----2-| 
A|-------------|-----------------| also "let ring" the 
D|-------------|-----------------| notes in the second bar


Solo

E|-------------------------------|
B|--------------------------8-10-| with some
G|-7-9-9-7-9--7-9--7-9--7-9------| variations
D|-7-9-9-7-9--7-9--7-9-----------| on the last
A|-------------------------------| notes
D|-------------------------------|


Song Structure:
---------------
Intro      4x
Verse A    8x
Verse B    1x
Pre-Chorus 4x
Chorus     4x
Verse A    8x
Verse B    1x
Pre-Chorus 8x
Chorus     4x
Solo       4x
Verse B    1x
Pre-Chorus 8x
Chorus     4x


tabbed by PelzR
Добавлено: 19.03.2012
Другие материалы по этой песне:

Страница создана 15.03.2012
http://primanota.ru/quorthon/its-ok-chords.htm
Привет, Гость.
Предлагаем пройти революционный курс по гитаре.
Подарок от PrimaNota.Ru, забирай!