PrimaNota.ru - самый крупный в мире бесплатный архив песенных текстов, аккордов, табулатур и нот


Quietdrive - Its A Shame - таба, видео

Регистрация Запомнить меня
Войти через:  Facebook Google Twitter Vk Yandex Mail.ru

Quietdrive - Its A Shame - таба, видео

Печатать
Просмотров: 134
Уроки эстрадного вокала в Санкт-Петербурге
                                       Quietdrive - Its A Shame

Tuning: Half Step Down

INTRO
Electric 1
Eb|-----------------------------|
Bb|-----------------------------|
Gb|-----------------------------|
Db|-----------------6-6--11--11-| x2
Ab|----4-------7-6--x-x--x---x--|
Eb|-2-----2-5-------4-4--9---9--|

VERSE

Electric 1
(Clean)
Eb|----------------------------------|
Bb|------5---7--------5----------5---|
Gb|--------6--------7---7------7---7-|
Db|-4-7------------------------------| x2
Ab|---------------5----------4-------|
Eb|----------------------------------|

PRE-CHORUS

Electric 1-2
Eb|-----------------------------------------------------------|
Bb|-----------------------------------------------------------|
Gb|------7-6--------7-6-----------7-6-------------------------|
Db|-xxx--7-6-4-7----7-6-4-xx-7----7-6-4-7---------------------|
Ab|-xxx--5-4-4-7----5-4-4-xx-7----5-4-4-7------5555-4444/8888-|
Eb|-xxx------2-5--------2-xx-5--------2-5-4444----------------|

CHORUS

Electric 1-2
Eb|------------------|
Bb|------------------|
Gb|-7--6--------4--6-|
Db|-7--6--4--7--4--6-|
Ab|-5--4--4--7--2--4-|
Eb|-------2--5-------|

INTRO

VERSE

PRE-CHORUS

CHORUS

Electric 1-2
Eb|--------------------------------|
Bb|--------------------------------|
Gb|-7--6----------4--6--------4--6-|
Db|-7--6--4--7----4--6--4--7--4--6-|
Ab|-5--4--4--7----2--4--4--7--2--4-|
Eb|-------2--5----------2--5-------|

POST CHORUS

Electric 1
Eb|----------------------------------------------|
Bb|----------------------------------------------|
Gb|-11111111\--11111111\--111111-----------------|
Db|-11111111\--11111111\--111111-----------------|
Ab|-9-9-9-9-\--9-9-9-9-\--9-9-9---7--------------|
Eb|---------------------------------10-9-7-5-4-2-|

SOLO (part 1)

Electric 1-2
(any easier way to play with it sounding right, plz post)
Eb|-----------    -----------------  -----------    ----------------|
Bb|-----------    -----------------  -----------    --------------2-|
Gb|-------2---    -------22-1-2----  -------2---    -------22-1-2---|
Db|---------4- x2 --------------4--  ---------4- x2 ----------------|
Ab|-----------    -----------------  -----------    ----------------|
Eb|-2h5h5-----    -2h5h5-----------  -2h5h5-----    -2h5h5----------|

SOLO (part 2)

Electric 1
(tremolo)
Eb|-17--16--9--12-------------|
Bb|----------------10--15--14-|
Gb|---------------------------|
Db|---------------------------|
Ab|---------------------------|
Eb|---------------------------|

Electric 2
Eb|---------------------------------------------------|
Bb|---------------------------------------------------|
Gb|-7--4----------------------------------------------|
Db|-7--4--4--7----------------------------------------|
Ab|-5--2--4--7--55555555--44444444-----------44444444-|
Eb|-------2--5---------------------44444444-----------|

PRE CHORUS

Electric 1
(tremolo
Eb|-17--19--16/17--14--17--19--16/21-|
Bb|----------------------------------|
Gb|----------------------------------|
Db|----------------------------------|
Ab|----------------------------------|
Eb|----------------------------------|

Electric 2

Same chords as the pre-chorus from above


CHORUS

OUTRO

Electric 1
Eb--------------------------|
Bb--------------------------|
Gb-111111-------------------|
Db-111111-------------------|
Ab-9-9-9---9-7--------------|
Eb-------------10-9-7-5-4-2-|
Добавлено: 17.10.2014
Другие материалы по этой песне:
  • Аккорды и текст

Страница создана 17.10.2014
http://primanota.ru/quietdrive/its-a-shame-chords.htm
Привет, Гость.
Предлагаем пройти революционный курс по гитаре.
Подарок от PrimaNota.Ru, забирай!