PrimaNota.ru - самый крупный в мире бесплатный архив песенных текстов, аккордов, табулатур и нот


Quicksilver Messenger Service - Gold And Silver - таба, видео

Регистрация Запомнить меня
Войти через:  Facebook Google Twitter Vk Yandex Mail.ru

Quicksilver Messenger Service - Gold And Silver - таба, видео

Печатать
Просмотров: 136
-----------------------------------------------------------------------------
                Gold and Silver – Quicksilver Messenger Service
-----------------------------------------------------------------------------
Tabbed by: Gabe Rubs You


INTRO:
e|---------8-------8----8----8---------------------8--8--------|
B|---6---6---6---6------10---10---10----10--6---6--8--8---6----|
G|---7---7---7---7---------9------9-----9---7---7---9-----7----|
D|-----5-------5--------------------10--------6-----------7----|
A|--------------------------------------------------------5----|
E|--------------------------------------------------------5----|

e|-----------------------|
B|---------6--------6----|
G|---5/10--7--5/10--7----|
D|---5/10--7--5/10--7----|
A|---------5--------5----|
E|---------5--------5----|

RHYTHM:
e|---5-5-5-5--5-5----5-------| Repeat
B|---6-6-6-6--5-5----5-7-5---|
G|---7-7-7-7--5-5------7-5---|
D|---7-7-7-7--7-7------------|
A|---5-5-5-5--7-7------------|
E|---5-5-5-5--5-5------------|

e|--------------------------------------------------------------------------|
B|---10-10—8h10p8-------5-6-5h6p5--------5---------6---------5---------3h5~-|
G|-7--------------9\5-7-----------7p5------77-77-7---77-77-7---7-5-5h7~-----|
D|------------------------------------7-------------------------------------|
A|--------------------------------------------------------------------------|
E|--------------------------------------------------------------------------|

e|----------------------|
B|---5h6-5h6-5h6p5------|
G|-----------------7-5--|
D|----------------------|
A|----------------------|
E|----------------------|

e|--------------------------------------------------------------------------|
B|---10-10—8h10p8-------5-6-5h6p5--------5---------6---------5---------3h5~-|
G|-7--------------9\5-7-----------7p5------77-77-7---77-77-7---7-5-5h7~-----|
D|------------------------------------7-------------------------------------|
A|--------------------------------------------------------------------------|
E|--------------------------------------------------------------------------|

e|---------------------------------------------------------|
B|---5h6-5h6-8--6-8/10--1010-1010-88-88--------------------|
G|--------------------------------------1010-1010-9-7------|
D|----------------------------------------------------10---|
A|---------------------------------------------------------|
E|---------------------------------------------------------|

e|----------10-------------8------8----9----------14------|
B|------------11------------8---10----8-8-------10--------|
G|------7-------12-----------8-------9---9----11----------|
D|-----8---------------10-------------------12------------|
A|---10--------------10-----------------------------------|
E|------------------8-------------------------------------|



************************************

| /   slide up
| \   slide down
| h   hammer-on
| p   pull-off
| ~   vibrato
| +   harmonic
| x   Mute note
| b   Bend
| pb  Pre-bend
| br  Bend release
| pbr Pre-bend release
| brb Bend release bend

************************************
Добавлено: 31.08.2013
Другие материалы по этой песне:
  • Аккорды и текст

Страница создана 20.07.2013
http://primanota.ru/quicksilver-messenger-service/gold-and-silver-chords.htm
Привет, Гость.
Предлагаем пройти революционный курс по гитаре.
Подарок от PrimaNota.Ru, забирай!