PrimaNota.ru - самый крупный в мире бесплатный архив песенных текстов, аккордов, табулатур и нот


Question Mark And The Mysterians - Ninety Six Tears - таба, видео

Регистрация Запомнить меня
Войти через:  Facebook Google Twitter Vk Yandex Mail.ru

Question Mark And The Mysterians - Ninety Six Tears - таба, видео

Печатать
Просмотров: 177
96 Tears
    (Rudy  Martinez)
   ? & The Mysterians

Capo at 12th fret for best results.

Here are the organ riffs that make up the song (chords are implied):

riff 1:

[N.C.]
v   v    v   v   v   v 
--------|----------------|
------1-|/3--/3--1-------|
--0-3---|----------3-0---|
--------|----------------|
--------|----------------|
--------|----------------|

riff 2:

(G) (Eb)
v   v   v   v    v   v   v   v
----------------|----------------|
----------------|----------------|
4-4-4-4-4-4-4-4-|3-3-3-3-3-3-3-3-|
5-5-5-5-5-5-5-5-|5-5-5-5-5-5-5-5-|
----------------|----------------|
----------------|----------------|

riff 3:

(G) (Eb)
v   v   v   v    v   v   v   v
----------------|----------------|
----------------|----------------|
0-----0-------0-|----0-------0---|
--0-2-----0-2---|1-2---1---2-----|
----------------|----------------|
----------------|----------------|

Here is the bass riff which underlines the bridge (during the Em chord only)=
:

Em
v   v   v   v
----------------|
------0---------|
--------2-0-----|
0-----------3-2-|

=3D=3D=3D=3D=3D=3D=3D=3D=3D=3D=3D=3D=3D=3D=3D=3D=3D=3D=3D=3D=3D=3D=3D=3D=3D=
=3D=3D=3D=3D=3D=3D=3D=3D=3D=3D=3D=3D=3D=3D=3D=3D=3D=3D=3D=3D=3D=3D=3D=3D=3D=
=3D=3D=3D=3D=3D=3D=3D=3D=3D=3D=3D=3D=3D=3D=3D=3D=3D=3D=3D=3D=3D=3D=3D=3D

Structure:
(Note: If you can't figure out where each section starts
and ends, just ignore where it says intro, verse 1, ect.)

Intro:

Riff 1
Riff 2  -omit first two notes this time only!
Riff 2

Verse 1:

Riff 3
Riff 3
Riff 2
Riff 2
Riff 2
Riff 2

Verse 2:

Riff 3
Riff 3
Riff 2
Riff 2
Riff 2
Riff 2

Verse 3:

Riff 3
Riff 3
Riff 2
Riff 2
Riff 2
Riff 2

Bridge (organ and guitar plays chords):

Em
//// //// //// //// //// //// //// //// //// ////
(Em)           C
//// //// //// ////

Link:

Riff 2
Riff 2 (w/ first bar 2x)
Riff 2

Verse 4:

Riff 3
Riff 3
Riff 2
Riff 2
Riff 2
Riff 2

Coda:

Riff 3
Riff 3
Riff 2
Riff 2
Riff 2
Riff 3 (repeat riff and fade)

     
Добавлено: 27.09.2013
Другие материалы по этой песне:
  • Аккорды и текст

Страница создана 27.09.2013
http://primanota.ru/question-mark-and-the-mysterians/ninety-six-tears-chords.htm
Привет, Гость.
Предлагаем пройти революционный курс по гитаре.
Подарок от PrimaNota.Ru, забирай!