PrimaNota.ru - самый крупный в мире бесплатный архив песенных текстов, аккордов, табулатур и нот


Quest For Glory - Eranas Peace - таба, видео

Регистрация Запомнить меня
Войти через:  Facebook Google Twitter Vk Yandex Mail.ru

Quest For Glory - Eranas Peace - таба, видео

Печатать
Просмотров: 76
Erana'S Peace
~Quest for Glory I: So You Want To Be a Hero~
Composed by: Mark Seibert
Arranged by: kenor

Rhytm: 4/4 metrum
Capo 1   


                                                                             |--3--|   
     E  E  E  E  E  E  E  E     E  E  E  E  E  E  E  E     E  E  E  E  E  E  E  E  E   
E||--------------------------|--------------------------|-----------------------------|
B||-----------3-----------3--|-----------3--------2--3--|--2--------2-----------0-----|
G||--------4-----4-----4-----|--------4--------4--------|--------2-----2-----2-----2--|
D||-----4-----------4--------|-----4--------4-----------|-----2-----------2-----------|
A||--2-----------------------|--2-----------------------|--0--------------------------|
E||--------------------------|--------------------------|-----------------------------|


  E  E  E  E  E  E  E  E     E  E  E  E  E  S S E  E     E  E  E  E  E  E  E  E   
-----------0--------------|--------------0------------|--------------------------|
--0-----------------------|-------------------3----2--|--3-----------------------|
--------------------------|-----------0---------0-----|-----------2--------------|
--------2-----------2-----|--------2--------2---------|--------0-----0--------0--|
-----2-----------2-----2--|-----2---------------------|-----0-----------0--------|
--4-----------4-----------|--3------------------------|--2-----------------2-----|


  E  S S E  E  E  E  E  E     E  E  E  E  E  E  E  E     E  E  E  E  E  E  E  E   
---------------------------|--------------------------|--------------------------|
--3----1----0--1-----------|--1-----------------------|--0-----------------------|
------------------------2--|-----------0--0-----------|--------------------------|
---------3-----------3-----|--------2-----------2-----|--------2--------------2--|
-----3------------3--------|-----3-----------3-----3--|-----2-----2--1-----4-----|
--1------------1-----------|--0-----------0-----------|--2--------------2--------|


                             |--3--|                |--3--|                              
  E  E  E  E  E  E  E  E     S  S  S E  E  E  E  E  E  E  E     E  E  E  E  E  E  E  E   
--------------------------|----------------------------------|-----------0--------------|
--------------0-----2--3--|--2h-3p-2-------2-----------0-----|--0-----------------------|
-----------------4--------|-------------2-----2-----2-----2--|--------------------------|
--0-----0--4--------------|----------2-----------2-----------|--------2-----------2-----|
-----2--------------------|--0-------------------------------|-----2-----------2-----2--|
--------------------------|----------------------------------|--4-----------4-----------|


  E  E  E  E  E  S S E  E     E  S S E  E  E  E  E  E     E  S S E  E  E  E  E  E   
--------------0----0----0--|--0------------------------|---------------------------|
---------------------------|-------3----2--3-----------|--3----1----0--1-----------|
-----------0---------0-----|---------------------------|------------------------2--|
--------2--------2---------|---------0-----------0-----|---------3-----------3-----|
-----2---------------------|-----0------------0-----0--|-----3------------3--------|
--3------------------------|--2------------2-----------|--1------------1-----------|


  E  E  E  E  E  E  E  E     E  E  E  E  E  E  E  E     E  E  E  E  E  E  E  E   
--------------------------|--------------------------|--------------------------|
--1-----------------------|--0-----------------------|--------------0-----2--3--|
-----------0--0-----2-----|--------------------------|-----------------4--------|
--------2--------2-----2--|--------2--------------2--|--0-----0--4--------------|
-----3--------3-----------|-----2-----2--1-----4-----|--2--2--------------------|
--0-----------------------|--2--------------2--------|--------------------------|


  |--3--|                |--3--|                                                          
  S  S  S E  E  E  E  E  E  E  E     E  E  E  E  E  E  E  E     E  E  E  E  E  S S E  E   
----------------------------------|-----------0--------------|--------------0----0----0--|
--2h-3p-2-------2-----------0-----|--0-----------------------|---------------------------|
-------------2-----2-----2-----2--|--------------------------|-----------0---------0-----|
----------2-----------2-----------|--------2-----------2-----|--------2--------2---------|
--0-------------------------------|-----2-----------2-----2--|-----2---------------------|
----------------------------------|--4-----------4-----------|--3------------------------|


  E  S S E  E  E  E  E  E     E  S S E  E  E  E  E  E     E  E  E  E  E  E  E  E   
--0------------------------|---------------------------|--------------------------|
-------3----2--3-----------|--3----1----0--1-----------|--1-----------------------|
---------------------------|------------------------2--|-----------0--0-----2-----|
---------0-----------0-----|---------3-----------3-----|--------2--------2-----2--|
-----0------------0-----0--|-----3------------3--------|-----3--------3-----------|
--2------------2-----------|--1------------1-----------|--0-----------------------|


  E  E  E  E  E  E  E  E     E  E  E  E  E  S S E  E     E  E  E  E  E  E  E  S S  
--------------------------|--------------2----3----5--|--0--------------------0-2-|
--0-----------------------|--------3------------3-----|-----------2---------------|
--------------------------|-----2-----2-----2---------|--------2-----2------------|
--------2--------------2--|--0------------------------|-----2-----------2---------|
-----2-----2--1-----4-----|---------------------------|--0-----------------0------|
--2--------------2--------|---------------------------|---------------------------|


  E  E  E  E  E  S S E  E     E  E  E  E  E  E  E  E     E  E  E  E  E  S S E  E   
--3----------------2----0--|--------------------------|--------------2----0-------|
-----------1---------------|--3-----------------------|-----------3------------3--|
--------0-----0------0-----|-----------0--------------|--------4------------4-----|
-----2-----------2---------|--------0-----0-----------|-----4-----------4---------|
--3------------------------|-----2-----------2-----0--|--2------------------------|
---------------------------|--3-----------------3-----|---------------------------|


                              |--3--|                                                 
  E  E  E  E  E  S S E  E     E  E  E  E  E  E  E  E  E     E  E  E  E  E  S S E  E   
--0---------------------0--|-----------------------------|-----------2--2----3----5--|
--------------2----3-------|--3--2--0--------------------|--------3------------3-----|
--------2------------2-----|-----------------0-----------|-----2-----------2---------|
-----2-----2-----2---------|--------------0-----0--------|--0-----------0------------|
--0------------------------|-----------2-----------2--4--|---------------------------|
---------------------------|--3--------------------------|---------------------------|


  E  E  E  E  E  E  E  S S    E  E  E  E  E  S S E  E     E  E  E  E  E  E  E  E   
--0--------------------0-2-|--3----------------2----0--|--------------------------|
-----------2---------------|-----------1---------------|--3-----------------------|
--------2-----2------------|--------0-----0------0-----|-----------0--------------|
-----2-----------2---------|-----2-----------2---------|--------0-----0-----0-----|
--0-----------------0------|--3------------------------|-----2-----------2-----4--|
---------------------------|---------------------------|--3-----------------------|


  E  E  E  E  E  S S E  E     E  E  E  E  E  S S E  E     E  E  E  E  E  E  Q     
--------------2----0-------|--0---------------------0--|-------------------------|
-----------3------------3--|--------------2----3-------|--3----------------------|
--------4------------4-----|--------2------------2-----|-----------0-------------|
-----4-----------4---------|-----2-----2-----2---------|--------0-----0-----0----|
--2------------------------|--0------------------------|-----2-----------2-------|
---------------------------|---------------------------|--3----------------------|


                                                        |--3--|                |--3--|   
  E  E  E  E  E  E  E  E     E  E  E  E  E  E  E  E     S  S  S E  E  E  E  E  E  E  E   
-----------0--------0--2--|--------------------------|----------------------------------|
--0-----0-----2-----------|--0--------3--------2--3--|--2h-3p-2-------2-----------0-----|
-----------------3--------|--------4--------4--------|-------------2-----2-----2-----2--|
-----4--------------------|-----4--------4-----------|----------2-----------2-----------|
--------------------------|--2-----------------------|--0-------------------------------|
--2-----------------------|--------------------------|----------------------------------|


  E  E  E  E  E  E  E  E     E  E  E  E  E  S S E  E     E  S S E  E  E  E  E  E   
-----------0--------------|--------------0----0----0--|--0------------------------|
--0-----------------------|---------------------------|-------3----2--3-----------|
--------------------------|-----------0---------0-----|---------------------------|
--------2-----------2-----|--------2--------2---------|---------0-----------0-----|
-----2-----------2-----2--|-----2---------------------|-----0------------0-----0--|
--4-----------4-----------|--3------------------------|--2------------2-----------|


  E  S S E  E  E  E  E  E     E  E  E  E  E  E  E  E     E  E  E  E  E  E  E  E   
---------------------------|--------------------------|--------------------------|
--3----1----0--1-----------|--1-----------------------|--0-----------------------|
------------------------2--|-----------0--0-----2-----|--------------------------|
---------3-----------3-----|--------2--------2-----2--|--------2--------------2--|
-----3------------3--------|-----3--------3-----------|-----2-----2--1-----4-----|
--1------------1-----------|--0-----------------------|--2--------------2--------|


                             |--3--|                |--3--|                              
  E  E  E  E  E  E  E  E     S  S  S E  E  E  E  E  E  E  E     E  E  E  E  E  E  E  E   
--------------------------|----------------------------------|-----------0--------------|
--------------0-----2--3--|--2h-3p-2-------2-----------0-----|--0-----------------------|
-----------------4--------|-------------2-----2-----2-----2--|--------------------------|
--0-----0--4--------------|----------2-----------2-----------|--------2-----------2-----|
--2--2--------------------|--0-------------------------------|-----2-----------2-----2--|
--------------------------|----------------------------------|--4-----------4-----------|


  E  E  E  E  E  S S E  E     E  S S E  E  E  E  E  E     E  S S E  E  E  E  E  E   
--------------0----0----0--|--0------------------------|---------------------------|
---------------------------|-------3----2--3-----------|--3----1----0--1-----------|
-----------0---------0-----|---------------------------|------------------------2--|
--------2--------2---------|---------0-----------0-----|---------3-----------3-----|
-----2---------------------|-----0------------0-----0--|-----3------------3--------|
--3------------------------|--2------------2-----------|--1------------1-----------|


  E  E  E  E  E  E  E  E     E  E  E  E  E  E  E  E     E  E  E  E  E  S S E  E   
--------------------------|--------------------------|--------------2----3----5--|
--1-----------------------|--0-----------------------|--------3------------3-----|
-----------0--0-----2-----|--------------------------|-----2-----2-----2---------|
--------2--------2-----2--|--------2--------------2--|--0------------------------|
-----3--------3-----------|-----2-----2--1-----4-----|---------------------------|
--0-----------------------|--2--------------2--------|---------------------------|


  E  E  E  E  E  E  E  S S    E  E  E  E  E  S S E  E     E  E  E  E  E  E  E  E   
--0--------------------0-2-|--3----------------2----0--|--------------------------|
-----------2---------------|-----------1---------------|--3-----------------------|
--------2-----2------------|--------0-----0------0-----|-----------0--------------|
-----2-----------2---------|-----2-----------2---------|--------0-----0-----------|
--0-----------------0------|--3------------------------|-----2-----------2-----0--|
---------------------------|---------------------------|--3-----------------3-----|


                                                          |--3--|                     
  E  E  E  E  E  S S E  E     E  E  E  E  E  S S E  E     E  E  E  E  E  E  E  E  E   
--------------2----0-------|--0---------------------0--|-----------------------------|
-----------3------------3--|--------------2----3-------|--3--2--0--------------------|
--------4------------4-----|--------2------------2-----|-----------------0-----------|
-----4-----------4---------|-----2-----2-----2---------|--------------0-----0--------|
--2------------------------|--0------------------------|-----------2-----------2--4--|
---------------------------|---------------------------|--3--------------------------|


  E  E  E  E  E  S S E  E     E  E  E  E  E  E  E  S S    E  E  E  E  E  S S E  E   
-----------2--2----3----5--|--0--------------------0-2-|--3----------------2----0--|
--------3------------3-----|-----------2---------------|-----------1---------------|
-----2-----------2---------|--------2-----2------------|--------0-----0------0-----|
--0-----------0------------|-----2-----------2---------|-----2-----------2---------|
---------------------------|--0-----------------0------|--3------------------------|
---------------------------|---------------------------|---------------------------|


  E  E  E  E  E  E  E  E     E  E  E  E  E  S S E  E     E  E  E  E  E  S S E  E   
--------------------------|--------------2----0-------|--0---------------------0--|
--3-----------------------|-----------3------------3--|--------------2----3-------|
-----------0--------------|--------4------------4-----|--------2------------2-----|
--------0-----0-----0-----|-----4-----------4---------|-----2-----2-----2---------|
-----2-----------2-----4--|--2------------------------|--0------------------------|
--3-----------------------|---------------------------|---------------------------|


  E  E  E  E  E  E  Q       E  E  E  E  E  E  E  E     E  E  E  E  E  E  E  E   
-------------------------|-----------0--------0--2--|--7-----------------------|
--3----------------------|--0-----0-----2-----------|-----------------------7--|
-----------0-------------|-----------------3--------|-----------7--------7-----|
--------0-----0-----0----|-----4--------------------|--------9--------9--------|
-----2-----------2-------|--------------------------|-----9--------9-----------|
--3----------------------|--2-----------------------|--7-----------------------|


                                                        ^                  
  E  E  E  E  E  E  E  E     E  E  E  E  E  E  E  E     W                  
--------------------------|--------------------------|--7----------------||
-----------------------7--|-----------------------7--|-------------------||
-----------7--------7-----|-----------7--------7-----|--7----------------||
--------9--------9--------|--------9--------9--------|-------------------||
-----9--------9-----------|-----9--------9-----------|-------------------||
--7-----------------------|--7-----------------------|--7----------------||



Legend:
-------

W - whole
Q - quarter
E - 8th
S - 16th
|-n-|  - n-tuplets
SH - semi harmonic
PH - pitch harmonic
h - hammer on
p - pull off
^ - brush up
Добавлено: 14.05.2016
Другие материалы по этой песне:
  • Аккорды и текст

Страница создана 14.05.2016
http://primanota.ru/quest-for-glory/eranas-peace-chords.htm
Привет, Гость.
Предлагаем пройти революционный курс по гитаре.
Подарок от PrimaNota.Ru, забирай!