PrimaNota.ru - самый крупный в мире бесплатный архив песенных текстов, аккордов, табулатур и нот


Queso - Furlan - таба, видео

Регистрация Запомнить меня
Войти через:  Facebook Google Twitter Vk Yandex Mail.ru

Queso - Furlan - таба, видео

Печатать
Просмотров: 256
queso
furlan
standard tuning
(EADGBE)

Intro:
gutar 1
E|-------------------------------------------------------------------|
B|-------------------------------------------------------------------|
G|-7-7-7-7-7-7-7-7-7-7-7-7-7-7-7-7-7-7-7-7-7-7-7-7-7-7-7-7-7-7-------|
D|-7-7-7-7-7-7-7-7-7-7-7-7-7-7-7-7-7-7-7-7-7-7-7-7-7-7-7-7-7-7-------|
A|-5-5-5-5-5-5-5-5-5-5-5-5-5-5-5-5-5-5-5-5-5-5-5-5-5-5-5-5-5-5-------|
E|-------------------------------------------------------------------|

guitar 2
E|-----------------------------------7~--7h8p7-5h7-88s10-------------------------------|
B|----------------------------8h10p8---------------------12h13p12-10h12p10-1010-8s5-8--|
G|-7~--7-7s9-55p4-4h5-5h7-5s9----------------------------------------------------------|
D|-------------------------------------------------------------------------------------|
A|-------------------------------------------------------------------------------------|
E|-------------------------------------------------------------------------------------|

gutar 1
E|-------------------------------------------------------------------|
B|-------------------------------------------------------------------|
G|-------------------------------7-7-7-7-7-7-7-7-7-7-7-7-7-7-7-7-7-7-|
D|-3-3-3-3-3--2-2-2-2-2-2-2-2-2--7-7-7-7-7-7-7-7-7-7-7-7-7-7-7-7-7-7-|
A|-3-3-3-3-3--2-2-2-2-2-2-2-2-2--5-5-5-5-5-5-5-5-5-5-5-5-5-5-5-5-5-5-|
E|-1-1-1-1-1---------------------------------------------------------|

gutar 2
E|---------------------------------0--0----0--0---0--0----0--0-----------|
B|----------------------------------3--3----3--3---3--3----3--3----------|
G|-----------------------------------2--2----2--2---2--2----2--2---------|
D|-3-3-3-3-3--2-2-2-2-2-2-2-2-2--0--------0------0-------0-------0-------|
A|-3-3-3-3-3--2-2-2-2-2-2-2-2-2------------------------------------------|
E|-1-1-1-1-1-------------------------------------------------------------|


unang tab ko po ito..
mga 50% tama po yang intro na yan..
orange-o
Добавлено: 10.07.2012
Вам также может быть интересно:
Другие материалы по этой песне:
  • Аккорды и текст

Страница создана 03.03.2012
http://primanota.ru/queso/furlan-chords.htm
Привет, Гость.
Предлагаем пройти революционный курс по гитаре.
Подарок от PrimaNota.Ru, забирай!