PrimaNota.ru - самый крупный в мире бесплатный архив песенных текстов, аккордов, табулатур и нот


Queensryche - Take hold of the flame1 - таба, видео

Регистрация Запомнить меня
Войти через:  Facebook Google Twitter Vk Yandex Mail.ru

Queensryche - Take hold of the flame1 - таба, видео

Печатать
Просмотров: 71


queensryche: take hold of the flame........transcribed by michel rogй aubй ...enjoy 


  intro/verse
 [-----0---------0-----------------------------]
 [-----0---------0-------0---------------1-----]
 [-----2---------4---45----------2----2----2--]
 [---2-2-------2----------------3----3---------]
 [0----0----0------0---------------------------]
 [-------------------------0-1-----------------]


 [0--------------0--0---------------------------0]
 [--1------------3----3-------0-----0-----------0]
 [----2---0------4------0---2-----4-----------2-2]
 [------3------5-5-------3----5-----3-2---2---2]
 [----------------------------------------0-----0]
 [----------3------------------------------------]


 [--0-----------------0------0---------0---------]
 [----0-------------0--------0---------0-------0-]
 [------0-----0---0----------2---------4---45---]
 [----------2--------------2-2-------2-----------]
 [-------3-----2-------0----0----0------0-------]
 [-----------------------------------------------]


 [-----------------------------------0--0--------]
 [--------------1-----1p0------------3----3------]
 [-------2----2----2------2---0------4------0---2]
 [-----3----3---------------3------5-5-------3--]
 [-----------------------------------------------]
 [0-1---------------------------3----------------]


 [-------------------0--0-----------------0]
 [-0-----0-----------0----0-------------0--]
 [-----4-----------2-2------0-----0---0----]
 [--5-----3-2---2---2----------2----------]
 [-------------0-----0-------3-----2------]
 [-----------------------------------------]

 then repeat the first run again


                              

Добавлено: 24.09.2013
Другие материалы по этой песне:
  • Аккорды и текст

Страница создана 24.09.2013
http://primanota.ru/queensryche/take-hold-of-the-flame1-chords.htm
Привет, Гость.
Предлагаем пройти революционный курс по гитаре.
Подарок от PrimaNota.Ru, забирай!