PrimaNota.ru - самый крупный в мире бесплатный архив песенных текстов, аккордов, табулатур и нот


Queensryche - Operation Mindcrime - текст песни, таба, бас-таба, видео

Регистрация Запомнить меня
Войти через:  Facebook Google Twitter Vk Yandex Mail.ru

Queensryche - Operation Mindcrime - текст песни, таба, бас-таба, видео

Печатать
Просмотров: 212
Авторы музыки: Chris DeGarmo, Geoff Tate, Michael Wilton

This is my first tab so enjoy! Listen to the song for the timing of the notes. 


Intro (x3)
|--------------------------|
|--------------------------|
|-----------------------9--|
|-----------------------9--|
|------4-----2/5--------7--|
|---2-----2----------------|

right after that on the fourth part of the intro play this

|---------------------------|
|---------------------------|
|---------------------------|
|---------------------7--6--|
|------4-----2/5------7--6--|
|---2-----2-----------5--4--|

Then play this on the heavier part

|---------------------------------------------|
|-------------3-----------------3-------------|
|-------------2-----------------2-------2--1--|
|-------------0-----------------0---2---2--2--|
|------4------0----------4------0---2---------|
|---2-----2--------xx-2-----2-------0---------|

Then the second part of that play this

|--------------------------------------------|
|-----------------3------------------3-------|
|-----------------2------------------2-------|
|-----------------0------------------0---2~--|
|---------4-------0----------4-------0---2~--|
|---0--2-----2---------0--2-----2--------0~--|

Verse (x2)

|-----------------------------------------|
|-----------------------------------------|
|----------2----------------------2-------|
|---4--4---2---4--4--------4--4---2---2~--|
|---4--4---0---4--4--------4--4---0---2~--|
|---2--2-------2--2--------2--2-------0~--|

after the second time play this part (like the intro)

|-----------------------------------------------|
|-----------------------------------------------|
|-------------------9---------------------------|
|-------------------9---------------------7--6--|
|------4------2/5---7-------4------2/5----7--6--|
|---2-----2--------------2-----2----------5--4--|

then play this two more times until the chorus

|-----------------------------------------|
|-----------------------------------------|
|----------2----------------------2-------|
|---4--4---2---4--4--------4--4---2---2~--|
|---4--4---0---4--4--------4--4---0---2~--|
|---2--2-------2--2--------2--2-------0~--|


I don't know anything after this point but i will update when i figure it out. Enjoy!


Добавлено: 23.07.2012
Другие материалы по этой песне:

Страница создана 14.03.2012
http://primanota.ru/queensryche/operation-mindcrime-chords.htm
Привет, Гость.
Предлагаем пройти революционный курс по гитаре.
Подарок от PrimaNota.Ru, забирай!