PrimaNota.ru - самый крупный в мире бесплатный архив песенных текстов, аккордов, табулатур и нот


Queensryche - Anarchy-X - таба, видео

Регистрация Запомнить меня
Войти через:  Facebook Google Twitter Vk Yandex Mail.ru

Queensryche - Anarchy-X - таба, видео

Печатать
Просмотров: 107
Авторы музыки: Chris DeGarmo

Chris De Garmo's Part:
e|---------------------------------------------------------3--------|
b|------------6-------------8-------------8----6-----------3--------|
g|--0---------5---5/7-------5---------5----------------2---0--------|
d|--3---------3---5/7-------5-----5--------------------3---0--------|
a|--3-------------3/5--------------------------------------x--------|
e|--1------------------------------------------------------3--------|
                           let ring------------------|

e|---------------------------------------------------------3-----------|
b|------------6-------------8-------------8----6-----------3-----------|
g|--0---------5---5/7-------5---------5----------------2---0-----------|
d|--3---------3---5/7-------5-----5--------------------3---0-----3-----|
a|--3-------------3/5--------------------------------------x-----3-----|
e|--1------------------------------------------------------3-----1-----|
                           let ring------------------|

e|-------------------------------------------------|
b|------------6-------------8-----8-6-----6--------|
g|--0---------5---5/7-------5-----5-5-----5---2-2--|
d|--3---------3---5/7-------5-----5-5-----5---0-3--|
a|--3-------------3/5------------------------------|
e|--1----------------------------------------------|

Solo riff:
e|---------------------------------------------------------|
b|--13~~--12~~---------13~~--12~~---------12~~--15-13w~~~~-|
g|--------------14~~~--------------14~~~-------------------|
d|---------------------------------------------------------|
a|---------------------------------------------------------|
e|---------------------------------------------------------|

e|----------------------------------------------------|
b|--12-13~~--12-13~~--12~~---------13~~--12~~---------|
g|--------------------------14~~~--------------14~~---|
d|----------------------------------------------------|
a|----------------------------------------------------|
e|----------------------------------------------------|

    (1/2)
e|-------------------------------------------19-20-19-17h19p17--------|
b|--15b--(15)r-15~~--15-17-18-17-18-20-18-20-------------------20~~~--|
g|--------------------------------------------------------------------|
d|--------------------------------------------------------------------|
a|--------------------------------------------------------------------|
e|--------------------------------------------------------------------|

   (full)
e|--20b--(20)r-20~~--19-20-17-19----19--------|
b|-------------------------------20----20-----|
g|--------------------------------------------|
d|--------------------------------------------|
a|--------------------------------------------|
e|--------------------------------------------|

Segment of Michael Wilton's part after Chris' solo:
e|------------------------------------------|
b|------------------------------------------|
g|--4---5--2---4---5--2---4---7-5---4---5---|
d|--4---5--2---4---5--2---4---7-5---4---5---|
a|--2---3--0---2---3--0---4---5-3---2---3---|
e|------------------------------------------|

Chris and Michael along with Geoff Tate on Key board:
e|------------------------------------------|
b|------------------------------------------|
g|--------------------------4--5--/--11~----|   Segue to:
d|----------------4---5--7------------------| "Revolution Calling"
a|--2----6----7-----------------------------|
e|------------------------------------------|

Key:
/- Slide up
\- Slide down
h- Hammer on
p- Pull off
x- Mute/Muffle String
~- Vibrato
( )- Ghost Note
b- Bend
b with a signature (1/2, 1/4, full) shows how far
to bend the string.
r- Release
w~- Wide Vibrato
Добавлено: 20.08.2013
Вам также может быть интересно:
Другие материалы по этой песне:
  • Аккорды и текст

Страница создана 20.08.2013
http://primanota.ru/queensryche/anarchy-x-2-chords.htm
Привет, Гость.
Предлагаем пройти революционный курс по гитаре.
Подарок от PrimaNota.Ru, забирай!