PrimaNota.ru - самый крупный в мире бесплатный архив песенных текстов, аккордов, табулатур и нот


Queens Of The Stone Age - Monsters In The Parasol - аккорды и текст, таба, бас-таба, видео

Регистрация Запомнить меня
Войти через:  Facebook Google Twitter Vk Yandex Mail.ru

Queens Of The Stone Age - Monsters In The Parasol - аккорды и текст, таба, бас-таба, видео

Печатать
Просмотров: 244
Авторы музыки: Mario Lalli, Josh Homme

Monsters In The Parasol
Queens Of The Stone Age



Date: Fri, 29 Dec 2000 12:58:59 -0500
From: j sorensson 
Subject: q/queens_of_the_stoneage/monsters_in_the_parasol.crd

song: monsters in the parasol
band: queens of the stone age
album: R

This song is really nice. As usual my tab won't tell you how many times
you should play each riff. If you sing as you play, you'll notice.

*=play 8 times

intro:
e--------------------
b--------------------
g-----------------7b-
d--*--------------7b-
a-7--7-7-7-7-7-7-----
e-5--5-5-5-5-5-5-----

verse:
e----------------------  --------- --last time
b----------------------  --------- -------
g-------------------7b-  --------- -------
d--*--*-------------7b-  -*-*-*-*- --*--*-
a-7--7--7-7-7-7-7-7----  7-7-5-5-- -7--7--
e-5--5--5-5-5-5-5-5----  5-5-3-3-- -5--5--

pre chorus:
e-----------------  -------------------
b-----------------  -------------------
g-----------------  --*-------*---*--*-
d-7-6-5---5-6-7-6-  -8----*-10--11--11-
a-------7---------  -6--10---8---9---9-
e-----------------  -----8-------------

chorus:
   Ebm  Bb F#
eb--*------8-8-8-8-8--8------8-8-8-8-8--8-----
bb-7-----*--------------6/7---------------6/7-
gb------7-------------------------------------
db--------------------------------------------
ab--------------------------------------------
eb--------------------------------------------

end:
e-------------------
b-------------------
g-------------------
d-7-6-5---5-6-7-6-7-
a-------7-----------
e-------------------

.monsters,right. comments corrections questions pics of cheese
mail me.


Добавлено: 15.11.2013
Другие материалы по этой песне:

Страница создана 14.03.2012
http://primanota.ru/queens-of-the-stone-age/monsters-in-the-parasol-chords.htm
Привет, Гость.
Предлагаем пройти революционный курс по гитаре.
Подарок от PrimaNota.Ru, забирай!