PrimaNota.ru - самый крупный в мире бесплатный архив песенных текстов, аккордов, табулатур и нот


Queens Of The Stone Age - Lightning Song - аккорды и текст, таба, бас-таба, видео

Регистрация Запомнить меня
Войти через:  Facebook Google Twitter Vk Yandex Mail.ru

Queens Of The Stone Age - Lightning Song - аккорды и текст, таба, бас-таба, видео

Печатать
Просмотров: 165
Авторы музыки: Dave Catching

Lightning Song
Queens Of The Stone Age



Date: Fri, 23 Mar 2001 13:11:24 -0500
From: Nick Donatelli 
Subject: q/queens_of_the_stone_age/lightning_song.crd

Lightning Song 
by Queens of the Stone Age
transcribed by Nick D.
this is simply my interpretation of this song, feel free to correct if you see any errors.

tuning- DADDAD
main riff
|----0--0--0--0--0---0---0---0--0--0----0--0--0--0--0---0--0--0-----|
|----0--0--0--0--0---0---0---0--0--0----0--0--0--0--0---0--0--0-----|
|----4/-6/-7/-9/-11/-12-11-9-6--6----4/-6/-7/-9/-11--4-2/-4-----|
|----4/-6/-7/-9/-11/-12-11-9-6--6----4/-6/-7/-9/-11--4-2/-4-----|
|----0--0--0--0--0---0---0---0--0--0----0--0--0--0--0---0--0--0-----|
|----0--0--0--0--0---0---0---0--0--0----0--0--0--0--0---0--0--0-----|

riff 2

|----0--0--0----|
|----0--0--0----|
|----4-2/-4----|
|----4-2/-4----|
|----0--0--0----|
|----0--0--0----|

end part

|----0---0---0--0---0--0--0----|
|----0---0---0--0---0--0--0----|
|----12-11-9/-11-9-7-6----|
|----12-11-9/-11-9-7-6----|
|----x---x---x--x---x--x--x----|
|----12-11-9/-11--9-7-6----|
I think there is another version of this tabbed out there somewhere, but I'm 
fairly certain that this is the correct way to play the song.
Enjoy 


Добавлено: 26.10.2013
Другие материалы по этой песне:

Страница создана 08.05.2012
http://primanota.ru/queens-of-the-stone-age/lightning-song-chords.htm
Привет, Гость.
Предлагаем пройти революционный курс по гитаре.
Подарок от PrimaNota.Ru, забирай!